Log in

One click and you are in

Login with Facebook Login with Google

Why sign up and log in

Guitar Tabs Explorer
Harry Styles guitar chords for Medicine (Ver. 2)

Guitar chords with lyrics

Tuning: Standard (E A D G B E)

Key: A chord diagramC# minorC#m

Difficulty: Novice

Harry Styles
"Medicine"
   A chord diagramC# minorC#m  A chord diagramBB   F#/A# A chord diagramA majorA    A chord diagramE MajorE
e|(4)--(2)-------(0)--------|
B|-5----4---(2)---2---(0)---|
G|-6----4----3----2----1----|
D|-6----4----4----2----2----|
A|-4----2----1----0----2----|
E|---------------------0----|



Intro:
  PM
e|------------------------|------------------------|------------------------|------------------------|
B|------------------------|------------------------|------------------------|------------------------|
G|------------------------|------------------------|------------------------|------------------------|
D|------------------------|------------------------|------------------------|------------4---2~------|
A|2h4-4-4---4-2---4-4---4-|2h4-4-4---4-2h4-4-4---4-|2h4-4-4---4-2h4-4-4---4-|2h4-4-4---2-------------|
E|------------------------|------------------------|------------------------|----------------------4-|
  1   + 2   + 3   + 4   +  etc

e|------------------------|------------------------|------------------------|------------------------|
B|------------------------|------------------------|------------------------|------------------------|
G|------------------------|------------------------|------------------------|------------------------|
D|------------------------|------------2-----------|------------------------|------------2-----------|
A|2h4-4-4---4-2---4-4---4-|2h4-4-4---4-----4-------|2h4-4-4---4-2---4-4---4-|2h4-4-4---4-----4-------|
E|------------------------|--------------------4---|------------------------|--------------------4---|

e|------------------------|------------------------|------------------------|------------------------|
B|------------------------|------------------------|------------------------|------------------------|
G|------------------------|------------------------|------------------------|------------------x-----|
D|------------------------|----------------2~------|------------------------|------------------x-----|
A|------------------------|------------------------|------------------------|------------------x-----|
E|0h2-2-2---2-0h2-2-2---2-|0h2-2-2---2-0-----------|0h2-2-2---2-0h2-2-2b3~--|------------------------|


Verse 1:
A chord diagramC# minorC#m
Here to take my medicine, take my medicine, treat you like a pill again
A chord diagramF#5F#5
Give me that adrenaline, that adrenaline, think I’m gonna stick with you
A chord diagramC# minorC#m
Here to take my medicine, take my medicine, rest it on your fingertips
           A chord diagramF#5F#5
Up to your mouth, feeling it out, feeling it out


Pre-Chorus 1:
A chord diagramC# minorC#m        A chord diagramBB                 F#/A#           A chord diagramA majorA
   I had a few, got drunk on you and now I'm wasted
A chord diagramC# minorC#m           A chord diagramBB                F#/A#            A chord diagramF#5F#5
   And when I sleep, I'm gonna dream of how you


Chorus 1:
A chord diagramC# minorC#m          A chord diagramBB                      F#/A#                       A chord diagramF#5F#5
   If you go out tonight, I'm going out 'cause I know you're persuasive
A chord diagramC# minorC#m            A chord diagramBB                     F#/A#              A chord diagramF#5F#5
   You got the salt and I got me an appetite, now I can taste it
A chord diagramC# minorC#m                  A chord diagramBB                     F#/A# A chord diagramF#5F#5
   You get me dizzy, oh, you get me dizzy,         la-la-la la-la
A chord diagramC# minorC#m                  A chord diagramBB                     F#/A# A chord diagramF#5F#5
   You get me dizzy, oh, you get me dizzy, oh


Verse 2:
A chord diagramC# minorC#m
Tingle running through my blood, fingers to my toes, tingle running through my bones
             A chord diagramF#5F#5
Boys and the girls are here, I mess around with him, and I'm okay with it


Pre-Chorus 2:
A chord diagramC# minorC#m           A chord diagramBB               F#/A#       A chord diagramA majorA
   I'm coming down, I figured out I kinda like it
A chord diagramC# minorC#m           A chord diagramBB                F#/A#            A chord diagramF#5F#5
   And when I sleep, I'm gonna dream of how you


Chorus 2:
A chord diagramC# minorC#m          A chord diagramBB                      F#/A#                       A chord diagramA majorA
   If you go out tonight, I'm going out 'cause I know you're persuasive
A chord diagramC# minorC#m            A chord diagramBB                     F#/A#              A chord diagramE MajorE
   You got the salt and I got me an appetite, now I can taste it
A chord diagramC# minorC#m                  A chord diagramBB                     F#/A# A chord diagramA majorA
   You get me dizzy, oh, you get me dizzy, oh,     la-la-la la-la
A chord diagramC# minorC#m                  A chord diagramBB                     F#/A# A chord diagramE MajorE
   You get me dizzy, oh, you get me dizzy, oh


Break:

A chord diagramF#5F#5
      A chord diagramF#5F#5  A chord diagramG5G5  A chord diagramG#5G#5
A chord diagramA5A5
      A chord diagramA5A5   A chord diagramA#5A#5  A chord diagramB5B5
A chord diagramC5C5
A chord diagramC# minorC#m


Pre-Chorus 3:
A chord diagramC# minorC#m        A chord diagramBB                 F#/A#           A chord diagramA majorA
   I had a few, got drunk on you and now I'm wasted


Chorus 3:
A chord diagramC# minorC#m          A chord diagramBB                      F#/A#                       A chord diagramF#5F#5
   If you go out tonight, I'm going out 'cause I know you're persuasive
A chord diagramC# minorC#m            A chord diagramBB                     F#/A#              A chord diagramF#5F#5
   You got the salt and I got me an appetite, now I can taste it
A chord diagramC# minorC#m                  A chord diagramBB                     F#/A# A chord diagramF#5F#5
   You get me dizzy, oh, you get me dizzy,         la-la-la la-la
A chord diagramC# minorC#m                  A chord diagramBB                     F#/A# A chord diagramF#5F#5
   You get me dizzy, oh, you get me dizzy, oh


Additional Parts

1st Verse:

e|------------------------|------------------------|------------------------|------------------------|
B|------------------------|------------------------|------------------------|------------------------|
G|------------------------|------------------------|------------------------|------------------------|
D|------------------------|------------2-----------|------------------------|------------2-----------|
A|2h4-4-4---4-2---4-4---4-|2h4-4-4---4-----4-------|2h4-4-4---4-2---4-4---4-|2h4-4-4---4-----4-------|
E|------------------------|--------------------4---|------------------------|--------------------4---|
                                                                                                       x2
e|------------------------|------------------------|------------------------|------------------------|
B|------------------------|------------------------|------------------------|------------------------|
G|------------------------|------------------------|------------------------|------------------------|
D|------------------------|----------------2~------|------------------------|------------------------|
A|------------------------|------------------------|------------------------|------------------------|
E|0h2-2-2---2-0h2-2-2---2-|0h2-2-2---2-0-----------|0h2-2-2---2-0h2-2-2b3~--|------------------0-----|


Pre-Chorus:

e|------------------------|------------------------|------------------------|------------------------|
B|------------------------|------------------------|------------------------|2-----------------------|
G|------------------------|------------------------|------------------------|2-----------------------|
D|------------------------|------------------------|------------------------|2-----------------------|
A|4~----------------------|2~----------------------|1~----------------------|0-----------------------|
E|------------------------|------------------------|------------------------|------------------------|


Chorus:

e|------------------------|------------------------|------------------------|------------------------|
B|5-----------------------|4-----------------------|------------------------|------------------------|
G|6-----------------------|4-----------------------|3-----------------------|------------------------|
D|6-----------------------|4-----------------------|4-----------------------|4---4-4---4-4---4-4---4-|
A|4-----------------------|2-----------------------|1~----------------------|4---4-4---4-4---4-4---4-|
E|------------------------|------------------------|------------------------|0h2-2-2---2-0h2-2-2---2-|

e|------------------------|------------------------|------------------------|------------------------|
B|------------------------|------------------------|------------------------|------------------------|
G|------------------------|------------------------|------------------------|------------------------|
D|------------------------|------------------------|------------------------|------------4-----2-----|
A|4~----------------------|2~----------------------|1~----------------------|--------2---------------|
E|------------------------|------------------------|------------------------|0--/2-------------------|


Break:

e|------------------------|------------------------|------------------------|------------------------|
B|------------------------|------------------------|------------------------|------------------------|
G|------------------------|------------------------|------------------------|------------------------|
D|------------------------|------------------------|------------------------|------------------------|
A|------------------------|------------------------|------------------------|------------------------|
E|2-----------------------|-------------2---3---4--|5-----------------------|------------5---6---7---|

e|------------------------|------------------------|------------------------|------------------------|
B|------------------------|------------------------|5-----------------------|------------------------|
G|------------------------|------------------------|6-----------------------|------------------------|
D|------------------------|------------------------|6-----------------------|------------------------|
A|------------------------|------------------------|4-----------------------|------------------------|
E|8-----------------------|------------------------|------------------------|------------------------|

Other versions of Medicine

MedicineChords
MedicineTabs

↓ Add and view comments below ↓

What do you think about this song and these chords?

Add your comments, questions, rant or a thumbs up below.

Almost there ...

Sign in to get your own page with links to favourite songs and more. You are just one click away...

Login with Facebook Login with Google