Log in

One click and you are in

Login with Facebook Login with Google

Why sign up and log in

Guitar Tabs Explorer
Harry Styles guitar tabs for Lights up (Ver. 2)

Intro with lyrics

  • Capo on 1st
Tuning: Standard (E A D G B E)

Harry Styles : "Lights Up"

  Intro                           Verse  Chorus

   A chord diagramA minorAm   A chord diagramAm7Am7  A chord diagramG MajorG    A chord diagramG6G6   A chord diagramDm9Dm9         A chord diagramA minorAm        A chord diagramG MajorG    A chord diagramDm9Dm9       A chord diagramA majorA
e|-5----5----3----3----0-----------0----5----3----0---------5----|
B|-5----8----3----5----1----5------1----5----3----1----5----5----|
G|-5----5----4----4----2----5------2----5----4----2----5----6----|
D|-7----7----5----5----0----7------2----7----5----0----7----7----|
A|(7)--(7)--(5)--(5)--(0)---5------0----7----5---(0)---5----7----|
E|-5----5----3----3--------(5)----------5----3--------------5----|

Intro:
A chord diagramA minorAm  A chord diagramAm7Am7  A chord diagramG MajorG  A chord diagramG6G6  A chord diagramDm9Dm9
A chord diagramA minorAm  A chord diagramAm7Am7  A chord diagramG MajorG  A chord diagramG6G6  A chord diagramDm9Dm9


Verse 1:
   A chord diagramA minorAm          A chord diagramG MajorG              A chord diagramDm9Dm9
   What do you mean I'm sorry by the way, never comin' back down
A chord diagramA minorAm           A chord diagramG MajorG               A chord diagramDm9Dm9
   Can't you see I could but wouldn't stay, wouldn't put it like that
   A chord diagramA minorAm          A chord diagramG MajorG              A chord diagramDm9Dm9
   What do you mean I'm sorry by the way, I'm never comin' around
A chord diagramA minorAm                A chord diagramG MajorG           A chord diagramDm9Dm9
   Be so sweet if things just stayed the same, la-da da-da-da


Chorus 1:
   A chord diagramDm9Dm9                     A chord diagramG MajorG           A chord diagramA majorA
   All the lights couldn't put out the dark
A chord diagramDm9Dm9                   A chord diagramG MajorG  A chord diagramA majorA
   Runnin' through my heart
A chord diagramDm9Dm9                   A chord diagramG MajorG            A chord diagramA majorA
   Lights up and they know who you are
   A chord diagramG MajorG            A chord diagramA majorA           A chord diagramG MajorG            A chord diagramA majorA
   Know who you are, do you know who you are?


Bridge:
A chord diagramA minorAm
Shine, step into the light
A chord diagramG MajorG
Shine, so bright sometimes
A chord diagramDm9Dm9
Shine, I'm not ever goin' back
A chord diagramA minorAm
Shine, step into the light
A chord diagramG MajorG
Shine, so bright sometimes
A chord diagramDm9Dm9
Shine, I'm not ever goin' back
A chord diagramA minorAm
Shine, step into the light
A chord diagramG MajorG
Shine, so bright sometimes
A chord diagramDm9Dm9
Shine, I'm not ever (oh)


Verse 2:
   A chord diagramA minorAm          A chord diagramG MajorG              A chord diagramDm9Dm9
   What do you mean I'm sorry by the way, I'm never comin' around
A chord diagramA minorAm                A chord diagramG MajorG           A chord diagramDm9Dm9
   Be so sweet if things just stayed the same, la-da da-da-da


Interlude:
 A chord diagramDm9Dm9 A chord diagramG MajorG   A chord diagramA majorA
(Oh, oh, oh) La-da-da-da-da
 A chord diagramDm9Dm9 A chord diagramG MajorG   A chord diagramA majorA
(Oh, oh, oh) La-da-da-da-da
 A chord diagramDm9Dm9          A chord diagramG MajorG   A chord diagramA majorA
(Oh-oh-oh-oh, oh, oh) La-da-da-da-da
 A chord diagramG MajorG   A chord diagramA majorA
(Oh, oh) La-da-da-da-da
 A chord diagramG MajorG    A chord diagramA majorA
(Oh, oh)


Chorus 2:
   A chord diagramDm9Dm9                     A chord diagramG MajorG           A chord diagramA majorA
   All the lights couldn't put out the dark
A chord diagramDm9Dm9                    A chord diagramG MajorG  A chord diagramA majorA
   Runnin' through my heart
A chord diagramDm9Dm9                   A chord diagramG MajorG            A chord diagramA majorA
   Lights up and they know who you are
   A chord diagramG MajorG            A chord diagramA majorA           A chord diagramG MajorG            A chord diagramA majorA
   Know who you are, do you know who you are?


ADDITIONAL PARTS


Chorus:
      A chord diagramDm9Dm9          A chord diagramG MajorG     A chord diagramA majorA          A chord diagramDm9Dm9              A chord diagramG MajorG     A chord diagramA majorA
e|----0-----------|----------------|----0-----------|----------------|
B|------1---------|--0-3-2---------|------1---------|--0-3-2---------|
G|--------2-----2-|0---------------|--------2-----2-|0---------------|
D|----------3-2---|----------------|----------3-2---|----------------|
A|----------------|----------------|----------------|----------------|
E|----------------|----------------|----------------|----------------|

  A chord diagramDm9Dm9              A chord diagramG MajorG     A chord diagramA majorA          A chord diagramG MajorG    A chord diagramA majorA           A chord diagramG MajorG     A chord diagramA majorA          A chord diagramG MajorG                A chord diagramA minorAm
e|----0-----------|----------------|----------------|----------------|5--3------------|----------------|
B|------1---------|--0-3-2---------|--0-3-2---------|--0-3-2---------|------6--5--3---|5---------------|
G|--------2-----2-|0---------------|0---------------|0---------------|----------------|----------------|
D|----------3-2---|----------------|----------------|----------------|----------------|----------------|
A|----------------|----------------|----------------|----------------|----------------|----------------|
E|----------------|----------------|----------------|----------------|----------------|----------------|

Other versions of Lights Up

Lights upChords
Lights up (Ver. 2)Chords
Lights up - introTabs

↓ Add and view comments below ↓

What do you think about this song and these tabs?

Add your comments, questions, rant or a thumbs up below.

Almost there ...

Sign in to get your own page with links to favourite songs and more. You are just one click away...

Login with Facebook Login with Google