Log in

One click and you are in

Login with Facebook Login with Google

Why sign up and log in

Guitar Tabs Explorer
Harry Styles guitar tabs for Kiwi

Guitar tabs

Verse:
e|---------------------------------------------------------------------------|
B|---------------------------------------------------------------------------|
G|-9\--------7---7-9\----------12---7--9\------------------------------------|
D|-9\--------7---7-9\----------12---7--9\----5-5-5-5-5-5-5-7-7-7-7-7-7-7-----|
A|-7\--------5---5-7\----------10---5--7\----5-5-5-5-5-5-5-7-7-7-7-7-7-7-----|
E|-------------------------------------------3-3-3-3-3-3-3-5-5-5-5-5-5-5-----|

e|---------------------------------------------------------------------------|
B|---------------------------------------------------------------------------|
G|-9\--------7---7-9\----------12---7--9\------------------------------------|
D|-9\--------7---7-9\----------12---7--9\----5-5-5-5-5-5-5-7-7-7-7-7-7-7-----|
A|-7\--------5---5-7\----------10---5--7\----5-5-5-5-5-5-5-7-7-7-7-7-7-7-----|
E|-------------------------------------------3-3-3-3-3-3-3-5-5-5-5-5-5-5-----|
Chorus:
e|------------------------------------------------------------------------------|
B|------------------------------------------------------------------------------|
G|-9--9-9---9--9-9---9--9-9--7--7-7---7--7-7--9--9-9--9--9-9---9--9-9--7--7-7---|
D|-9--9-9---9--9-9---9--9-9--7--7-7---7--7-7--9--9-9--9--9-9---9--9-9--7--7-7---|
A|-7--7-7---7--7-7---7--7-7--5--5-5---5--5-5--7--7-7--7--7-7---7--7-7--5--5-5---|
E|------------------------------------------------------------------------------|

e|------------------------------------------------------------------------------|
B|------------------------------------------------------------------------------|
G|-9--9-9---9--9-9---9--9-9--7--7-7---7--7-7--9--9-9--9--9-9---9--9-9--7--7-7---|
D|-9--9-9---9--9-9---9--9-9--7--7-7---7--7-7--9--9-9--9--9-9---9--9-9--7--7-7---|
A|-7--7-7---7--7-7---7--7-7--5--5-5---5--5-5--7--7-7--7--7-7---7--7-7--5--5-5---|
E|------------------------------------------------------------------------------|

e|---------------------------------------------------------------------------|
B|---------------------------------------------------------------------------|
G|---------------------------------------------------------------------------|
D|-5-5-5-5-5-5-5-7-7-7-7-7-7-7-----------------------------------------------|
A|-5-5-5-5-5-5-5-7-7-7-7-7-7-7-----------------------------------------------|
E|-3-3-3-3-3-3-3-5-5-5-5-5-5-5-----------------------------------------------|

Verse:
e|---------------------------------------------------------------------------|
B|---------------------------------------------------------------------------|
G|-9\--------7---7-9\----------12---7--9\------------------------------------|
D|-9\--------7---7-9\----------12---7--9\----5-5-5-5-5-5-5-7-7-7-7-7-7-7-----|
A|-7\--------5---5-7\----------10---5--7\----5-5-5-5-5-5-5-7-7-7-7-7-7-7-----|
E|-------------------------------------------3-3-3-3-3-3-3-5-5-5-5-5-5-5-----|

e|---------------------------------------------------------------------------|
B|---------------------------------------------------------------------------|
G|-9\--------7---7-9\----------12---7--9\------------------------------------|
D|-9\--------7---7-9\----------12---7--9\----5-5-5-5-5-5-5-7-7-7-7-7-7-7-----|
A|-7\--------5---5-7\----------10---5--7\----5-5-5-5-5-5-5-7-7-7-7-7-7-7-----|
E|-------------------------------------------3-3-3-3-3-3-3-5-5-5-5-5-5-5-----|


Chorus:
e|------------------------------------------------------------------------------|
B|------------------------------------------------------------------------------|
G|-9--9-9---9--9-9---9--9-9--7--7-7---7--7-7--9--9-9--9--9-9---9--9-9--7--7-7---|
D|-9--9-9---9--9-9---9--9-9--7--7-7---7--7-7--9--9-9--9--9-9---9--9-9--7--7-7---|
A|-7--7-7---7--7-7---7--7-7--5--5-5---5--5-5--7--7-7--7--7-7---7--7-7--5--5-5---|
E|------------------------------------------------------------------------------|

e|------------------------------------------------------------------------------|
B|------------------------------------------------------------------------------|
G|-9--9-9---9--9-9---9--9-9--7--7-7---7--7-7--9--9-9--9--9-9---9--9-9--7--7-7---|
D|-9--9-9---9--9-9---9--9-9--7--7-7---7--7-7--9--9-9--9--9-9---9--9-9--7--7-7---|
A|-7--7-7---7--7-7---7--7-7--5--5-5---5--5-5--7--7-7--7--7-7---7--7-7--5--5-5---|
E|------------------------------------------------------------------------------|

e|---------------------------------------------------------------------------|
B|---------------------------------------------------------------------------|
G|---------------------------------------------------------------------------|
D|-5-5-5-5-5-5-5-7-7-7-7-7-7-7-----------------------------------------------|
A|-5-5-5-5-5-5-5-7-7-7-7-7-7-7-----------------------------------------------|
E|-3-3-3-3-3-3-3-5-5-5-5-5-5-5-----------------------------------------------|


Bridge:
e|--------------------------------------------------------------------------------|
B|--------------------------------------------------------------------------------|
G|--------------------------------------------------------------------------------|
D|-----------------------------------------------7~-------------------------------|
A|-----------------0-2-0-------------------------5~-----------------0-2-0---------|
E|-5---3----0------------3/5p0-----5-----3---0--------5---3----0----------3/5p0---|

e|---------------------------------------------------------------------------------|
B|-----------------------------------------------------------------------------7---|
G|-----------------------------------------------------------------------------7---|
D|---------5-5-5-5-5-5-5-7-7-7-7-7-7-7------------7--5--7--5-----------7--5--xx----|
A|---------5-5-5-5-5-5-5-7-7-7-7-7-7-7--xx7--xx7--------------xx7--xx5-------------|
E|-5---3---3-3-3-3-3-3-3-5-5-5-5-5-5-5---------------------------------------------|

e|----------------------------------------------------------------------------------------|
B|---------------------------------------------12-----12--------------------12-----12-----|
G|---------------------------------------------14b16--14b16---14-12-14-12---14b16--14b16--|
D|-----------7--5---7---5--------------7\-------------------------------------------------|
A|-xx7--xx7------------------xx7--xx7-----------------------------------------------------|
E|----------------------------------------------------------------------------------------|


Chorus:
e|------------------------------------------------------------------------------|
B|------------------------------------------------------------------------------|
G|-9--9-9---9--9-9---9--9-9--7--7-7---7--7-7--9--9-9--9--9-9---9--9-9--7--7-7---|
D|-9--9-9---9--9-9---9--9-9--7--7-7---7--7-7--9--9-9--9--9-9---9--9-9--7--7-7---|
A|-7--7-7---7--7-7---7--7-7--5--5-5---5--5-5--7--7-7--7--7-7---7--7-7--5--5-5---|
E|------------------------------------------------------------------------------|

e|------------------------------------------------------------------------------|
B|------------------------------------------------------------------------------|
G|-9--9-9---9--9-9---9--9-9--7--7-7---7--7-7--9--9-9--9--9-9---9--9-9--7--7-7---|
D|-9--9-9---9--9-9---9--9-9--7--7-7---7--7-7--9--9-9--9--9-9---9--9-9--7--7-7---|
A|-7--7-7---7--7-7---7--7-7--5--5-5---5--5-5--7--7-7--7--7-7---7--7-7--5--5-5---|
E|------------------------------------------------------------------------------|

e|---------------------------------------------------------------------------|
B|---------------------------------------------------------------------------|
G|---------------------------------------------------------------------------|
D|-5-5-5-5-5-5-5-7-7-7-7-7-7-7-----------------------------------------------|
A|-5-5-5-5-5-5-5-7-7-7-7-7-7-7--------------------------------2--------------|
E|-3-3-3-3-3-3-3-5-5-5-5-5-5-5-----3--5---3--5---3--5---3--5--0--------------|

************************************

| x   Dead note
| p   Pull-off
| b   Bend
| /   Slide up
| \   Slide down
| ~   Vibrato

Other versions of Kiwi

KiwiChords
Kiwi (Ver. 2)Chords
Kiwi (Ver. 2) - soloTabs
Kiwi (Ver. 3)Tabs

↓ Add and view comments below ↓

What do you think about this song and these tabs?

Add your comments, questions, rant or a thumbs up below.

Almost there ...

Sign in to get your own page with links to favourite songs and more. You are just one click away...

Login with Facebook Login with Google