Log in

One click and you are in

Login with Facebook Login with Google

Why sign up and log in

Guitar Tabs Explorer
Harry Styles bass tabs for Kiwi

Bass tabs

  • Tuning: Standard tuning
  • Difficulty: Novice
-------------------------------------------------------------------
                     Artist - Harry Styles
                    ***********************
                          Song - Kiwi
                         *************
                   Album - Harry Styles (2017)
                  *****************************
                      Tabbed By - Ayreon77
                     **********************
-------------------------------------------------------------------

Tuning = Standard


VERSE 1
********
G|-------------------------------------------------|
D|--s---------s------5----s-------5-5-5-5--7-7-7-7-|
A|-7\------5-7\--------5-7\-----7------------------|
E|-------------------------------------------------|


---------------------------
00:19

CHORUS
*******
G|-------------------------------------------------|
D|--s---------s-------5----s------5-5-5-5--7-7-7-7-|
A|-7\------5-7\-----7---5-7\-----------------------|
E|-------------------------------------------------|

00:32
G|-------------------------|-------------------------|-------------------|
D|----------------p----p---|----------------p----p---|-----------------s-|
A|-5-7--7-7-7-7--7-5--7-5--|-5-7--7-7-7-7--7-5--7-5--|-5-7--7-7-7-7-7-7\-|
E|------------------7----7-|------------------7----7-|-------------------|

G|----------------------|
D|--------------7-7-7-7-|
A|-10-10-10-10----------|
E|----------------------|


G|-------------------------|-------------------------|-------------------|
D|----------------p----p---|----------------p----p---|-----------------s-|
A|-5-7--7-7-7-7--7-5--7-5--|-5-7--7-7-7-7--7-5--7-5--|-5-7--7-7-7-7-7-7\-|
E|------------------7----7-|------------------7----7-|-------------------|


G|--------------------------------------|
D|--------------7-7-7-7-7-7-7-7-7-7-7-7-|
A|-10-10-10-10--------------------------|
E|--------------------------------------|


---------------------------
00:59

VERSE 2
********
G|--------------------------------------------------|
D|-------------s-------5----s------5-5-5-5--7-7-7-7-|
A|---s------5-7\-----7---5-7\-----------------------|
E|-12\----------------------------------------------|


---------------------------
01:12

CHORUS
*******
G|-------------------------------------------------|
D|--s---------s------5----s-------5-5-5-5--7-7-7-7-|
A|-7\------5-7\--------5-7\-----7------------------|
E|-------------------------------------------------|

01:25
G|-------------------------|-------------------------|-------------------|
D|----------------p----p---|----------------p----p---|-----------------s-|
A|-5-7--7-7-7-7--7-5--7-5--|-5-7--7-7-7-7--7-5--7-5--|-5-7--7-7-7-7-7-7\-|
E|------------------7----7-|------------------7----7-|-------------------|


G|----------------------|
D|--------------7-7-7-7-|
A|-10-10-10-10----------|
E|----------------------|

01:38
G|-------------------------|-------------------------|-------------------|
D|----------------p----p---|----------------p----p---|-----------------s-|
A|-5-7--7-7-7-7--7-5--7-5--|-5-7--7-7-7-7--7-5--7-5--|-5-7--7-7-7-7-7-7\-|
E|------------------7----7-|------------------7----7-|-------------------|


G|----------------------|
D|--------------7-7-7-7-|
A|-10-10-10-10----------|
E|----------------------|


---------------------------
01:51

BREAK
******
G|---------------p------|--s-----------------------------|--s--------------p------|
D|-7--5--2---2--2-0-----|-5\7--5-------------------------|-5\7--5--2---2--2-0-----|
A|------------------2---|---------5--5-5-5-5-5-5-5-5-5-5-|--------------------2---|
E|--------------------3-|--------------------------------|----------------------3-|

02:01
G|---------------------------|
D|-5--5--5--5--7-7-7-7-7-7-7-|
A|---------------------------|
E|---------------------------|


---------------------------
02:04

BRIDGE
*******
G|----------------------------|-----------------------|-----------------------|
D|-------7-5-----7-5----------|---7-5----7-5----------|---7-5----7-5----------|
A|-7---7-------7-------7-7--7-|-7------7-------7-7--7-|-7------7-------7-7--7-|
E|----------------------------|-----------------------|-----------------------|


---------------------------
02:17

SOLO
*****
G|-------------------------|-------------------------|-------------------|
D|----------------p----p---|----------------p----p---|-----------------s-|
A|-5-7--7-7-7-7--7-5--7-5--|-5-7--7-7-7-7--7-5--7-5--|-5-7--7-7-7-7-7-7\-|
E|------------------7----7-|------------------7----7-|-------------------|


G|----------------------|
D|--------------7-7-7-7-|
A|-10-10-10-10----------|
E|----------------------|

02:30
G|-------------------------|-------------------------|-------------------|
D|----------------p----p---|----------------p----p---|-----------------s-|
A|-5-7--7-7-7-7--7-5--7-5--|-5-7--7-7-7-7--7-5--7-5--|-5-7--7-7-7-7-7-7\-|
E|------------------7----7-|------------------7----7-|-------------------|


G|----------------------|
D|--------------7-7-7-7-|
A|-10-10-10-10----------|
E|----------------------|


---------------------------
02:43

CHORUS
*******
G|--------------------------|--------------------------|--------------------------|
D|--------------------------|--------------------------|--------------------------|
A|-7-7--7-7-7-7--7-7-7-7--7-|-7-7--7-7-7-7--7-7-7-7--7-|-7-7--7-7-7-7--7-7-7-7--7-|
E|--------------------------|--------------------------|--------------------------|

02:53
G|---------------------|
D|-------------7-7-7-7-|
A|-10-10-10-10---------|
E|---------------------|


OUTRO
******
G|----------------------------|
D|-7-5--7-5--7-5--7-5--7-5--s-|
A|-------------------------7\-|
E|----------------------------|


ENJOY...........

↓ Add and view comments below ↓

What do you think about this song and these tabs?

Add your comments, questions, rant or a thumbs up below.

Almost there ...

Sign in to get your own page with links to favourite songs and more. You are just one click away...

Login with Facebook Login with Google