Log in

One click and you are in

Login with Facebook Login with Google

Why sign up and log in

Guitar Tabs Explorer
Harry Styles guitar tabs for Kiwi (Ver. 3)

Guitar tabs

Tuning: Standard (E A D G B E)


Verse
listen to the song for timing
e|------------------------------------------|
B|------------------------------------------|
G|-9----7--9----12--7--9--------------------|
D|-9----7--9----12--7--9-------5||||-7||||--| x2
A|-7----5--7----10--5--7--12/--5||||-7||||--|
E|------------------------12/--3||||-5||||--|
Chorus
listen to the song for timing
e|-------------------------------------3||||--5||||--|
B|-7/-9|||-7|--7/-9|||-7|--7/-9|||-7|--5||||--7||||--|
G|-7/-9|||-7|--7/-9|||-7|--7/-9|||-7|--5||||--7||||--|
D|-5/-7|||-5|--5/-7|||-5|--5/-7|||-5|----------------| x2
A|---------------------------------------------------|
E|---------------------------------------------------|


Verse
listen to the song for timing
e|------------------------------------------|
B|------------------------------------------|
G|-9----7--9----12--7--9--------------------|
D|-9----7--9----12--7--9-------5||||-7||||--| x2
A|-7----5--7----10--5--7--12/--5||||-7||||--|
E|------------------------12/--3||||-5||||--|


Chorus
listen to the song for timing
e|-------------------------------------3||||--5||||--|
B|-7/-9|||-7|--7/-9|||-7|--7/-9|||-7|--5||||--7||||--|
G|-7/-9|||-7|--7/-9|||-7|--7/-9|||-7|--5||||--7||||--|
D|-5/-7|||-5|--5/-7|||-5|--5/-7|||-5|----------------| x2
A|---------------------------------------------------|
E|---------------------------------------------------|

Interlude before the bridge
listen to the song for timing
e|---------------------------------------------------------------------------|
B|---------------------------------------------------------------------------|
G|---------------------------9-----------------------------------------------|
D|--------0h2-2-0------------9---------0h2--2--0--------5||||--7||||---------|
A|-----------------2---------7--------------------2-----5||||--7||||--10b12--|
E|--5-3-0-------------3--5-3-----5-3-0---------------3--3||||--5||||---------|

Bridge
listen to the song for timing
e|----------------------------------------------------------|
B|----------------------------------------------------------|
G|-9--9----------------------9--9------------------9--9-----|
D|-9--9----------------------9--9-------------5/7--9--9-----|
A|-7--7----------------------7--7------------------7--7-----|
E|------0--5--3--0--5--3--0--------0--5--3--0---------------|


Solo
listen to the song for timing
e|---------------------------------------------|
B|-10b12--10b12----10p8--10p8--10b12--10b12----|
G|---------------------------------------------|
D|---------------------------------------------|
A|---------------------------------------------|
E|---------------------------------------------|


Chorus
listen to the song for timing
e|-------------------------------------3||||--5||||--|
B|-7/-9|||-7|--7/-9|||-7|--7/-9|||-7|--5||||--7||||--|
G|-7/-9|||-7|--7/-9|||-7|--7/-9|||-7|--5||||--7||||--|
D|-5/-7|||-5|--5/-7|||-5|--5/-7|||-5|----------------| x2
A|---------------------------------------------------|
E|---------------------------------------------------|


Outro
listen to the song for timing
e|------------------------------------------|
B|------------------------------------------|
G|------------------------------------------|
D|------------------------------------------|
A|------------------------------------------|
E|--0--3/5--0--3/5--0--3/5--0--3/5--0--3--0-|


************************************

| /  Slide up
| h  Hammer-on
| b  Bend
| p  Pull-off

************************************

Other versions of Kiwi

KiwiChords
Kiwi (Ver. 2)Chords
KiwiTabs
Kiwi (Ver. 2) - soloTabs

↓ Add and view comments below ↓

What do you think about this song and these tabs?

Add your comments, questions, rant or a thumbs up below.

Almost there ...

Sign in to get your own page with links to favourite songs and more. You are just one click away...

Login with Facebook Login with Google