Log in

One click and you are in

Login with Facebook Login with Google

Why sign up and log in

Guitar Tabs Explorer
Harry Styles guitar tabs for Kiwi (Ver. 2)

Solo tabs

Part of the song: Solo/Riff
https://www.youtube.com/watch v=Zhhc7WFdb5Q
The A chord diagramA majorA and A chord diagramG MajorG chord are both played as power/barre chords


Solo:
e|--------------------------|-------------|
B|--------------------------|-------------|
G|--------------------------|--------7----|
D|---------0h2--2--0--------|--------7----|
A|--------------------2-----|--------5----|
E|--5-3-0----------------3--|--5--3-------|
                               A chord diagramG MajorG              A chord diagramA majorA
e|--------------------------|--3-3-3-3--|--5-5-5-5--|
B|--------------------------|--3-3-3-3--|--5-5-5-5--|
G|--------------------------|--2-2-2-2--|--4-4-4-4--|
D|---------0h2--2--0--------|--5-5-5-5--|--7-7-7-7--|
A|--------------------2-----|--5-5-5-5--|--7-7-7-7--|
E|--5-3-0----------------3--|--3-3-3-3--|--5-5-5-5--|

e|--------------------------|--------------------------|-----|
B|--------------------------|--------------------------|-----|
G|--------------------------|--------------------------|-----|
D|--------------------------|--------------------------|-----|
A|--7-----------------------|--7-----------------------|--7--|
E|-----5--3--0--5--3--0--0--|-----5--3--0--5--3--0--0--|-----|

***********************************

| h   Hammer-on

Other versions of Kiwi

KiwiChords
Kiwi (Ver. 2)Chords
KiwiTabs
Kiwi (Ver. 3)Tabs

↓ Add and view comments below ↓

What do you think about this song and these tabs?

Add your comments, questions, rant or a thumbs up below.

Almost there ...

Sign in to get your own page with links to favourite songs and more. You are just one click away...

Login with Facebook Login with Google