Log in

One click and you are in

Login with Facebook Login with Google

Why sign up and log in

Guitar Tabs Explorer
Harry Styles guitar chords for Girl crush (Ver. 2)

Guitar chords with lyrics

Tuning: Standard (E A D G B E)

Difficulty: Intermediate


Intro:
   A chord diagramC majorC
Verse 1:
           A chord diagramC majorC                    A chord diagramE minorEm
I've got a girl crush hate to admit it but
        A chord diagramFF                      A chord diagramG MajorG
I got a hard rush aint slowing down
         A chord diagramC majorC                        A chord diagramE minorEm
I got it real bad want everything she has
            A chord diagramFF                                         A chord diagramG MajorG
That smile and that midnight laugh she's giving you now


Chorus 1:
          A chord diagramA minorAm                              A chord diagramFF
I want to taste her lips yeah cause they taste like you/him
          A chord diagramC majorC                           A chord diagramG MajorG
I want to drown myself in a bottle of her perfume
           A chord diagramA minorAm                          A chord diagramFF
I want her long blond hair I want her magic touch
            A chord diagramC majorC                        A chord diagramG MajorG
Yeah, cause maybe then you'd want me just as much
           A chord diagramC majorC          A chord diagramFF A chord diagramC majorC A chord diagramG MajorG                         A chord diagramC majorC          A chord diagramFF A chord diagramC majorC A chord diagramG MajorG
I've got a girl crush          I've got a girl crush


Verse 2:
        A chord diagramC majorC                    A chord diagramE minorEm
I don't get no sleep I don't get no peace
          A chord diagramFF                   A chord diagramG MajorG
Thinking about her under your bed sheets
                   A chord diagramC majorC                             A chord diagramE minorEm
The way that she's whispering the way that she's pulling you in
                 A chord diagramFF                        A chord diagramG MajorG
Lord knows I've tried I can't get her off my mind

Chorus 2:
         A chord diagramA minorAm                              A chord diagramFF
I want to taste her lips yeah cause they taste like you/him
           A chord diagramC majorC                          A chord diagramG MajorG
I want to drown myself in a bottle of her perfume
           A chord diagramA minorAm                          A chord diagramFF
I want her long blond hair I want her magic touch
            A chord diagramC majorC                        A chord diagramG MajorG
Yeah, cause maybe then you'd want me just as much
           A chord diagramC majorC          A chord diagramFF A chord diagramC majorC A chord diagramG MajorG                         A chord diagramC majorC          A chord diagramFF A chord diagramC majorC A chord diagramG MajorG
I've got a girl crush          Ohhhh and I've got a girl crush


Solo:

e|---------------|---------------------|-----------------------------------------------|
B|---------------|----8-8h10b--10br-8--|-----13-15b(17)br15---------15-----------------|
G|--7pbr--5~-7b--|--/9-----------------|--/14---------------14b--14b--14br-12h14~-12~--|
D|---------------|---------------------|-----------------------------------------------|
A|---------------|---------------------|-----------------------------------------------|
E|---------------|---------------------|-----------------------------------------------|

e|---------------|----------------8-----------------|--------------------------------------------------------|
B|---------------|----8-8h10-10b----10--8h10-10~-8--|-----13-15b15b-15b15b-15b-15~-13~-15b-13-----15---------|
G|--7pbr--5~-7b--|--/9-9----------------------------|--/14------------------------------------14b----rb14-12-|
D|---------------|----------------------------------|--------------------------------------------------------|
A|---------------|----------------------------------|--------------------------------------------------------|
E|---------------|----------------------------------|--------------------------------------------------------|


Outro:
           A chord diagramC majorC                    A chord diagramE minorEm
I've got a girl crush hate to admit it but
        A chord diagramFF                      A chord diagramG MajorG      A chord diagramC majorC
I got a hard rush aint slowing down


After strumming the A chord diagramG MajorG chord once in verse 2: he plays this fill.
e|----------------|
B|--3/5\3/6~-/18--|
G|----------------|
D|----------------|
A|----------------|
E|----------------|


************************************

| h    Hammer-on
| b    Bend
| br   Bend release
| pbr  Pre-bend release
| /    Slide up
| ~    Vibrato
| \    Slide down

************************************

Other versions of Girl Crush

Girl crushChords
Girl crush ukuleleChords

↓ Add and view comments below ↓

What do you think about this song and these chords?

Add your comments, questions, rant or a thumbs up below.

Almost there ...

Sign in to get your own page with links to favourite songs and more. You are just one click away...

Login with Facebook Login with Google