Log in

One click and you are in

Login with Facebook Login with Google

Why sign up and log in

Guitar Tabs Explorer
Harry Styles guitar tabs for From the dining table

Guitar tabs

  • Capo on 1st
Tuning: Standard

Harry Styles
"From The Dining Table"

Intro:
  G1
e|----------------|----------------|----------------|----------------|
B|----------------|----------------|----------------|----------------|
G|----------------|----------------|----------------|2---------------|
D|4---------------|----------------|4-----------4---|4---------------|
A|5-----7-----5---|7-----5---------|5-----5---------|5---------------|
E|----------------|------------5---|7---------------|----------------|

e|----------------|----------------|----------------|
B|----------------|----------------|----------------|
G|----------------|----------------|----------------|
D|4---------------|----------------|4---------------|
A|5-----7-----5---|7-----5---------|5---------------|
E|----------------|------------5---|----------------|


Verse:

e|----------------|----------------|----------------|----------------|
B|----------------|----------------|----------------|----------------|
G|----------------|----------------|----------------|2---------------|
D|4---------------|----------------|4-----------4---|4---------------|
A|5-----7-----5---|7-----5---------|5-----5---------|5---------------|
E|----------------|------------5---|7---------------|----------------|
                                                                       X2
e|----------------|----------------|----------------|
B|----------------|----------------|----------------|
G|----------------|----------------|----------------|
D|4---------------|----------------|4---------------|
A|5-----7-----5---|7-----5---------|5---------------|
E|----------------|------------5---|----------------|


Pre-Chorus:

e|----------------|----------------|----------------|----------------|
B|----------------|----------------|----------------|----------------|
G|----2-5-----5---|4---2-2---------|----2-5-----5---|4---2-2---------|
D|4-5-4-7-----7---|----4-4---------|4-5-4-7-----7---|----4-4---------|
A|5-7-------------|------5---------|5-7-------------|------5---------|
E|------5---5---5-|3-2-------------|------5---5---5-|3-2-------------|

e|----------------|----------------|----------------|----------------|
B|----------------|----------------|----------------|----------------|
G|----2-5-----5---|4---2-2---------|--------0-0-0-0-|0---0-0-0---0-0-|
D|4-5-4-7-----7---|----4-4---------|4-5/7---2-2-2-2-|0---0-0-0---0-0-|
A|5-7-------------|------5---------|5-7/9---3-3-3-3-|2---2-2-2---2-2-|
E|------5---5---5-|3-2-------------|--------3-3-3-3-|3---3-3-3---3-3-|

e|----------------|----------------|----------------|----------------|
B|----------------|----------------|----------------|----------------|
G|----------------|----------------|----------------|2---------------|
D|4---------------|----------------|4-----------4---|4---------------|
A|5-----7-----5---|7-----5---------|5-----5---------|5---------------|
E|----------------|------------5---|7---------------|----------------|

e|----------------|----------------|----------------|
B|----------------|----------------|----------------|
G|----------------|----------------|----------------|
D|4---------------|----------------|4---------------|
A|5-----7-----5---|7-----5---------|5---------------|
E|----------------|------------5---|----------------|


Verse:

e|----------------|----------------|----------------|----------------|
B|----------------|----------------|----------------|----------------|
G|----------------|----------------|----------------|2---------------|
D|4---------------|----------------|4-----------4---|4---------------|
A|5-----7-----5---|7-----5---------|5-----5---------|5---------------|
E|----------------|------------5---|7---------------|----------------|
                                                                       X2
e|----------------|----------------|----------------|
B|----------------|----------------|----------------|
G|----------------|----------------|----------------|
D|4---------------|----------------|4---------------|
A|5-----7-----5---|7-----5---------|5---------------|
E|----------------|------------5---|----------------|


Pre-Chorus:

e|----------------|----------------|----------------|----------------|
B|----------------|----------------|----------------|----------------|
G|----2-5-----5---|4---2-2---------|----2-5-----5---|4---2-2---------|
D|4-5-4-7-----7---|----4-4---------|4-5-4-7-----7---|----4-4---------|
A|5-7-------------|------5---------|5-7-------------|------5---------|
E|------5---5---5-|3-2-------------|------5---5---5-|3-2-------------|

e|----------------|----------------|----------------|----------------|
B|----------------|----------------|----------------|----------------|
G|----2-5-----5---|4---2-2---------|--------0-0-0-0-|0---0-0-0---0-0-|
D|4-5-4-7-----7---|----4-4---------|4-5/7---2-2-2-2-|0---0-0-0---0-0-|
A|5-7-------------|------5---------|5-7/9---3-3-3-3-|2---2-2-2---2-2-|
E|------5---5---5-|3-2-------------|--------3-3-3-3-|3---3-3-3---3-3-|

e|----------------|----------------|
B|----------------|----------------|
G|0---0-0-0---0-0-|0---0-0-0---0-0-|
D|2---2-2-2---2-2-|2---2-2-2---2-2-|
A|3---3-3-3---3-3-|3---3-3-3---3-3-|
E|3---3-3-3---3-3-|3---3-3-3---3-3-|


Chorus:
  Strings
e|----------------|----------------|----------------|----------------|
B|----------------|----------------|----------------|----------------|
G|----------------|----------------|----------------|----------------|
D|----------------|----------------|----------------|5---------------|
A|----------------|----------------|----------------|----------------|
E|----------------|----------------|----------------|----------------|
 |G1
e|----------------|----------------|----------------|----------------|
B|----------------|----------------|----------------|----------------|
G|2---2---2---2---|0---0---0---0---|2---2---2---2---|0---0---0---0---|
D|4---4---4---4---|2---2---0---0---|4---4---4---4---|2---2---0---0---|
A|5---5---5---5---|3---3---2---2---|5---5---5---5---|3---3---2---2---|
E|5---5---5---5---|3---3---3---3---|5---5---5---5---|3---3---3---3---|


e|----------------|----------------|----------------|----------------|
B|----------------|----------------|----------------|----------------|
G|----------------|----------------|----------------|----------------|
D|4---------------|5---------------|4-----------4---|5------(5)------|
A|----------------|----------------|--------5-------|3-------5-------|
E|----------------|----------------|----------------|----------------|
 |
e|----------------|----------------|----------------|----------------|
B|----------------|----------------|----------------|----------------|
G|2---2---2---2---|0---0---0---0---|2---2---2---2---|0---0---0---0---|
D|4---4---4---4---|2---2---0---0---|4---4---4---4---|2---2---0---0---|
A|5---5---5---5---|3---3---2---2---|5---5---5---5---|3---3---2---2---|
E|5---5---5---5---|3---3---3---3---|5---5---5---5---|3---3---3---3---|


e|----------------|----------------|2---------2-3-5-|3---5---2-------|
B|----------------|----------------|------3---------|------------3---|
G|----------------|----------------|----------------|----------------|
D|4---------------|5---------------|4---------4-5-7-|5---7---4-------|
A|5---------------|5---------------|5-----5---------|------------5---|
E|----------------|----------------|----------------|----------------|
 |
e|----------------|----------------|----------------|----------------|
B|----------------|----------------|----------------|----------------|
G|2---2---2---2---|0---0---0---0---|2---2---2---2---|0---0---0---0---|
D|4---4---4---4---|2---2---0---0---|4---4---4---4---|2---2---0---0---|
A|5---5---5---5---|3---3---2---2---|5---5---5---5---|3---3---2---2---|
E|5---5---5---5---|3---3---3---3---|5---5---5---5---|3---3---3---3---|


e|----------------|----------------|
B|----------------|----------------|
G|----------------|----------------|
D|2---------------|0---------------|
A|3---------------|2---------------|
E|----------------|----------------|
 |
e|----------------|----------------|
B|----------------|----------------|
G|0---------------|0---------------|
D|2---------------|0---------------|
A|3---------------|2---------------|
E|3---------------|3---------------|

  G1
e|----------------|----------------|----------------|----------------|
B|----------------|----------------|----------------|----------------|
G|----------------|----------------|----------------|2---------------|
D|4---------------|----------------|4-----------4---|4---------------|
A|5-----7-----5---|7-----5---------|5-----5---------|5---------------|
E|----------------|------------5---|7---------------|----------------|


Verse:

e|----------------|----------------|----------------|----------------|
B|----------------|----------------|----------------|----------------|
G|----------------|----------------|----------------|2---------------|
D|4---------------|----------------|4-----------4---|4---------------|
A|5-----7-----5---|7-----5---------|5-----5---------|5---------------|
E|----------------|------------5---|7---------------|----------------|

e|----------------|----------------|----------------|
B|----------------|----------------|----------------|
G|----------------|----------------|----------------|
D|4---------------|----------------|4---------------|
A|5-----7-----5---|7-----5---------|5---------------|
E|----------------|------------5---|----------------|


Pre-Chorus:

e|----------------|----------------|----------------|----------------|
B|----------------|----------------|----------------|----------------|
G|----2-5-----5---|4---2-2---------|----2-5-----5---|4---2-2---------|
D|4-5-4-7-----7---|----4-4---------|4-5-4-7-----7---|----4-4---------|
A|5-7-------------|------5---------|5-7-------------|------5---------|
E|------5---5---5-|3-2-------------|------5---5---5-|3-2-------------|
                                                                      X2
e|----------------|----------------|----------------|----------------|
B|----------------|----------------|----------------|----------------|
G|----2-5-----5---|4---2-2---------|--------0-0-0-0-|0---0-0-0---0-0-|
D|4-5-4-7-----7---|----4-4---------|4-5/7---2-2-2-2-|0---0-0-0---0-0-|
A|5-7-------------|------5---------|5-7/9---3-3-3-3-|2---2-2-2---2-2-|
E|------5---5---5-|3-2-------------|--------3-3-3-3-|3---3-3-3---3-3-|

e|----------------|----------------|----------------|----------------|
B|----------------|----------------|----------------|----------------|
G|----------------|----------------|----------------|2---------------|
D|4---------------|----------------|4-----------4---|4---------------|
A|5-----7-----5---|7-----5---------|5-----5---------|5---------------|
E|----------------|------------5---|7---------------|----------------|

e|----------------|----------------|
B|----------------|----------------|
G|0---------------|0---------------|
D|2---------------|0---------------|
A|3---------------|2---------------|
E|3---------------|3---------------|


************************************

| (n) Continue holding previous note
| /   Slide up
| \   Slide down

Other versions of From The Dining Table

From the dining tableChords

↓ Add and view comments below ↓

What do you think about this song and these tabs?

Add your comments, questions, rant or a thumbs up below.

Almost there ...

Sign in to get your own page with links to favourite songs and more. You are just one click away...

Login with Facebook Login with Google