Log in

One click and you are in

Login with Facebook Login with Google

Why sign up and log in

Guitar Tabs Explorer
Harry Styles bass tabs for From the dining table

From The Dining Table bass tab by Harry Styles

Harry Styles bass tabs for From the dining table

Bass tabs

Intro:

G|-----------------------------|
D|--5--3--1--3--1--------1--5--|
A|-----------------1--3--------|
E|-----------------------------|

G|-----------------------------|
D|--5--3--1--3--1--1-----------|
A|-----------------------------|
E|-----------------------------|
Riff 1: X2

G|-----------------------------|
D|--5--3--1--3--1--------1--5--|
A|-----------------1--3--------|
E|-----------------------------|
Woke up alone in...
Fell back asleep...


G|-----------------------------|
D|--5--3--1--3--1--1-----------|
A|-----------------------------|
E|-----------------------------|
Played with myself...
I've never felt...


Riff 2: X3

G|-----------6----6--6--5------|
D|--5--6--8----------------8--5|
A|-----------------------------|
E|-----------------------------|
We haven't spoke...
Comfortable silence...
Why won't you ever...

Riff 2 Exit:

G|-----------------------------|
D|--5--6--8--3----3--3--5--1---|
A|-----------------------------|
E|-----------------------------|
Even the phone...

G|-----------------------------|
D|-----1--1--------------------|
A|--3--------------------------|
E|-----------------------------|
By the way...


Riff 1: X3

G|-----------------------------|
D|--5--3--1--3--1--------1--5--|
A|-----------------1--3--------|
E|-----------------------------|
***instrumental
I saw your friend...
I see you gave him...

G|-----------------------------|
D|--5--3--1--3--1--1-----------|
A|-----------------------------|
E|-----------------------------|
***instrumental
He said you feel...
More of what was...


Riff 2: X3

G|-----------6----6--6--5------|
D|--5--6--8----------------8--5|
A|-----------------------------|
E|-----------------------------|
I see his...
Comfortable silence...
Why won't you ever...


Riff 2 Exit:

G|-----------------------------|
D|--5--6--8--3----3--3--5--1---|
A|-----------------------------|
E|-----------------------------|
Even the phone...

G|-----------------------------|
D|-----1--1--------------------|
A|--3--------------------------|
E|-----------------------------|
By the way...


Chorus:

G|--------------------------------------------------------------------------1--1--1--1--1--1--1--1|
D|--1--1--1--1--1--1--1--1--1--1--1--1--1--1--1--1--1--1--1--1--1--1--1--1------------------------|
A|------------------------------------------------------------------------------------------------|
E|------------------------------------------------------------------------------------------------|
***Basically D# then G# however you want to play this. I like 8th notes.

G|--------------------------------------------------------------------------1--1--1--1--1--1--1--1|
D|--1--1--1--1--1--1--1--1--1--1--1--1--1--1--1--1--1--1--1--1--1--1--1--1------------------------|
A|------------------------------------------------------------------------------------------------|
E|------------------------------------------------------------------------------------------------|

G|--------------------------------------------------------------------------1--1--1--1--1--1--1--1|
D|--1--1--1--1--1--1--1--1--1--1--1--1--1--1--1--1--1--1--1--1--1--1--1--1------------------------|
A|------------------------------------------------------------------------------------------------|
E|------------------------------------------------------------------------------------------------|

G|--------------------------------------------------------------------|
D|--1--1--1--1--1--1--1--1--1--1--1--1--1--1--1--1--3--------1--------|
A|--------------------------------------------------------------------|
E|--------------------------------------------------------------------|


Riff 1:

G|-----------------------------|
D|--5--3--1--3--1--------1--5--|
A|-----------------1--3--------|
E|-----------------------------|
***Instrumental

G|-----------------------------|
D|--5--3--1--3--1--------1--5--|
A|-----------------1--3--------|
E|-----------------------------|
Woke up the girl...

G|-----------------------------|
D|--5--3--1--3--1--1-----------|
A|-----------------------------|
E|-----------------------------|
I almost said your name...


Riff 2: X3

G|-----------6----6--6--5------|
D|--5--6--8----------------8--5|
A|-----------------------------|
E|-----------------------------|
We haven't spoke...
Comfortable silence...
Why won't you ever...


Riff 2 Exit:

G|-----------------------------|
D|--5--6--8--3----3--3--5--1---|
A|-----------------------------|
E|-----------------------------|
Even my phone...


Riff 2: X3

G|-----------6----6--6--5------|
D|--5--6--8----------------8--5|
A|-----------------------------|
E|-----------------------------|
We haven't spoke...
Comfortable silence...
Why won't you ever...


Riff 2 Exit:

G|-----------------------------|
D|--5--6--8--3----3--3--5--1---|
A|-----------------------------|
E|-----------------------------|
Even my phone...

G|-----------------------------|
D|-----1--1--------------------|
A|--3--------------------------|
E|-----------------------------|
By the way...


Riff 1:

G|-----------------------------|
D|--5--3--1--3--1--------1--5--|
A|-----------------1--3--------|
E|-----------------------------|
***Instrumental

↓ Add and view comments below ↓

What do you think about this song and these tabs?

Add your comments, questions, rant or a thumbs up below.

Almost there ...

Sign in to get your own page with links to favourite songs and more. You are just one click away...

Login with Facebook Login with Google