Log in

One click and you are in

Login with Facebook Login with Google

Why sign up and log in

Guitar Tabs Explorer
Harry Styles guitar tabs for Cherry

Guitar tabs

Tuning: Standard (E A D G B E)


Intro:

e|--3-----------3------0--------------0---------------------0------------------------|
B|--------------------------------------------3---------------------1-------------1--|
G|-------0--------0----------0-----------0----------0----------0----------0---------0|
D|-----------------------------------------------------------------------------------|
A|--3--------3---------3-----------3----------3----------3----------3----------3-----|
E|-----------------------------------------------------------------------------------|

e|--3-----------3------0--------------0---------------------0------------------------|
B|--------------------------------------------3---------------------1---------------1|
G|-------0--------0----------0-----------0----------0----------0----------0---------0|
D|-----------------------------------------------------------------------------------|
A|--3--------3---------3-----------3----------3----------3----------3----------2-----|
E|-----------------------------------------------------------------------------------|

e|--3-----------3------0--------------0---------------------0------------------------|
B|--------------------------------------------3---------------------1-------------1--|
G|-------0--------0----------0-----------0----------0----------0----------0---------0|
D|-----------------------------------------------------------------------------------|
A|--0--------0---------0-----------0----------0----------0----------0----------0-----|
E|-----------------------------------------------------------------------------------|

e|--3-----------3------0--------------0---------------------0-----------------------0|
B|--------------------------------------------3---------------------1-------------1--|
G|-------0--------0----------0-----------0----------0----------0----------0----------|
D|-----------------------------------------------------------------------------------|
A|-----------------------------------------------------------------------------------|
E|--1--------1----------1-----------1----------1----------1----------1----------1----|

Other versions of Cherry

CherryChords
Cherry (Ver. 2)Chords
Cherry ukuleleChords
Cherry - introTabs

↓ Add and view comments below ↓

What do you think about this song and these tabs?

Add your comments, questions, rant or a thumbs up below.

Almost there ...

Sign in to get your own page with links to favourite songs and more. You are just one click away...

Login with Facebook Login with Google