Log in

One click and you are in

Login with Facebook Login with Google

Why sign up and log in

Guitar Tabs Explorer
Harry Styles guitar chords for Cherry

Guitar chords with lyrics

Tuning: Standard (E A D G B E)

Harry Styles
"Cherry"

Standard tuning.

Intro:
A chord diagramG MajorG
   Coucou

  A chord diagramG MajorG                                                              Bm/F#
e|10--10--7----7--|5----7--3----3--|10--10--7----7--|5----7--3----3--|
B|----------------|----------------|----------------|----------------|
G|----------------|----------------|----------------|----------------|
D|----------------|----------------|----------------|----------------|
A|----------------|----------------|----------------|----------------|
E|----------------|----------------|----------------|----------------|
 |
e|----------------|----------------|----------------|----------------|
B|--3---3---3---3-|--3---3---3---3-|--3---3---3---3-|--3---3---3---3-|
G|--4---4---4---4-|--4---4---4---4-|--4---4---4---4-|--4---4---4---4-|
D|5---5---5---5---|5---5---5---5---|5---5---5---5---|5---5---5---4---|
A|----------------|----------------|----------------|----------------|
E|----------------|----------------|----------------|----------------|

  A chord diagramE minor 7Em7                               A chord diagramCMaj9Cmaj9
e|10--10--7----7--|5----7--3----3--|10--10--7----7--|5----7--3----3--|
B|----------------|----------------|----------------|----------------|
G|----------------|----------------|----------------|----------------|
D|----------------|----------------|----------------|----------------|
A|----------------|----------------|----------------|----------------|
E|----------------|----------------|----------------|----------------|
 |
e|----------------|----------------|----------------|----------------|
B|--3---3---3---3-|--3---3---3---3-|--3---3---3---3-|--3---3---3---3-|
G|--4---4---4---4-|--4---4---4---4-|--4---4---4---4-|--4---4---4---4-|
D|2---2---2---2---|2---2---2---2---|----------------|----------------|
A|----------------|----------------|3---3---3---3---|3---3---3---3---|
E|----------------|----------------|----------------|----------------|


Chorus:
A chord diagramG MajorG
   Don't you call him "baby"
                            Bm/F#
   We're not talking lately
A chord diagramE minor 7Em7                                         A chord diagramCMaj9Cmaj9
   Don't you call him what you used to  call  me


Verse 1:
A chord diagramG MajorG                                    Bm/F# A chord diagramE minor 7Em7
I, I confess  ?I can tell that you are ? at your best
                             A chord diagramCMaj9Cmaj9
I'm selfish so I'm hating it
A chord diagramG MajorG                                        Bm/F# A chord diagramE minor 7Em7
I noticed that there's a piece of you in how    I dress
                   A chord diagramCMaj9Cmaj9
Take it as a compliment


Chorus:
A chord diagramG MajorG
   Don't you call him "baby"
                            Bm/F#
   We're not talking lately
A chord diagramE minor 7Em7                                         A chord diagramCMaj9Cmaj9
   Don't you call him what you used to  call  me


Break:
A chord diagramG MajorG          Bm/F#
A chord diagramE minor 7Em7   A chord diagramCMaj9Cmaj9
A chord diagramG MajorG          Bm/F#
A chord diagramE minor 7Em7   A chord diagramCMaj9Cmaj9


Verse 2:
A chord diagramG MajorG
I, I just miss
                       Bm/F# A chord diagramE minor 7Em7
I just miss your accent and your friends
                             A chord diagramCMaj9Cmaj9
Did you know I still talk to them?


Bridge:
A chord diagramD MajorD                                   A chord diagramC majorC        A chord diagramB minorBm    A chord diagramA minorAm
Does he take you walking 'round his parents' gallery?


Chorus:
A chord diagramG MajorG
   Don't you call him "baby"
                            Bm/F#
   We're not talking lately
A chord diagramE minor 7Em7                                         A chord diagramCMaj9Cmaj9
   Don't you call him what you used to  call  me
A chord diagramG MajorG
   Don't you call him "baby" (Ooh, ooh)
                            Bm/F#
   We're not talking lately
A chord diagramE minor 7Em7                                         A chord diagramCMaj9Cmaj9
   Don't you call him what you used to  call  me


Outro:
A chord diagramG MajorG

Other versions of Cherry

Cherry (Ver. 2)Chords
Cherry ukuleleChords
CherryTabs
Cherry - introChords

↓ Add and view comments below ↓

What do you think about this song and these chords?

Add your comments, questions, rant or a thumbs up below.

Almost there ...

Sign in to get your own page with links to favourite songs and more. You are just one click away...

Login with Facebook Login with Google