Log in

One click and you are in

Login with Facebook Login with Google

Why sign up and log in

Guitar Tabs Explorer
Harry Styles bass tabs for Carolina

Bass tabs

Intro and Verse 1: 0:00-0:47
                                              x12
G|----------------------------------------------|
D|----------------------------------------------|
A|----------------------------------------------|
E|0--/9-7--7-7-7-0--/9-7--7-7-9-----------------|
Chorus: 0:48-0:58                          0:59-1:02
                                         x4                                  x1
G|----------------------------------------|-----------------------------------|
D|----------------------------------------|-----------------------------------|
A|9-8-9-8--10-9-10--12-10-12-10--14-12-14-|--------7-7-7-7--7-7---------------|
E|----------------------------------------|----0--/---------------------------|


Verse 2: 1:03-1:33
                                               x8
G|----------------------------------------------|
D|----------------------------------------------|
A|----------------------------------------------|
E|0--/9-7--7-7-7-0--/9-7--7-7-9-----------------|


Chorus: 1:34-1:45                          1:46-1:53
                                         x3                                  x1
G|----------------------------------------|-----------------------------------|
D|----------------------------------------|-----------------------------------|
A|9-8-9-8--10-9-10--12-10-12-10--14-12-14-|--------7--7-7-7-----7--7-7-7-7-7--|
E|----------------------------------------|-0-----/--------0---/--------------|


Bridge: 1:54-2:24
                                               x9
G|----------------------------------------------|
D|----------------------------------------------|
A|----------------------------------------------|
E|0--/9-7--7-7-7-0--/9-7--7-7-9-----------------|


Chorus: 2:25-2:50                          2:51-2:59
         (rest a measure after 3rd time) x6                                  x1
G|----------------------------------------|-----------------------------------|
D|----------------------------------------|-----------------------------------|
A|9-8-9-8--10-9-10--12-10-12-10--14-12-14-|-----------------------------------|
E|----------------------------------------|-12--------------------------------|
                                           (let it ring until 2:59)

************************************

| /   Slide up

↓ Add and view comments below ↓

What do you think about this song and these tabs?

Add your comments, questions, rant or a thumbs up below.

Almost there ...

Sign in to get your own page with links to favourite songs and more. You are just one click away...

Login with Facebook Login with Google