Log in

One click and you are in

Login with Facebook Login with Google

Why sign up and log in

Guitar Tabs Explorer
Harry Styles guitar tabs for Adore you

Guitar tabs

Tuning: Standard (E A D G B E)


Solo:

e|-------------------------------------------------------------------------|
B|-------------------------------------------------------------------------|
G|12b----12p10-8---12-10-8-----8-10---12-10-8------8-10----------8h10-8----|
D|-------------------------x-10---------------x-10-----10-8--8h10-------10-|
A|-------------------------------------------------------------------------|
E|-------------------------------------------------------------------------|

e|-------------------------------------------------------------------------|
B|-------------------------------------------------------------------------|
G|12p10-12---10p8----8--12-10-10p8----8--12-10--10p8----8-8----10/17-17-15-|
D|---------------8-10-------------8-10--------------8-10---10--------------|
A|-------------------------------------------------------------------------|
E|-------------------------------------------------------------------------|

e|-------------------------------------------------------------------------|
B|---16--------------------------------------------------------------------|
G|15-----------------------------------------------------------------------|
D|-------------------------------------------------------------------------|
A|-------------------------------------------------------------------------|
E|-------------------------------------------------------------------------|


************************************

| x   Dead note
| h   Hammer-on
| p   Pull-off
| b   Bend
| /   Slide up

************************************

Other versions of Adore You

Adore youChords
Adore you (Ver. 2)Chords
Adore you ukuleleChords

↓ Add and view comments below ↓

What do you think about this song and these tabs?

Add your comments, questions, rant or a thumbs up below.

Almost there ...

Sign in to get your own page with links to favourite songs and more. You are just one click away...

Login with Facebook Login with Google