Log in

One click and you are in

Login with Facebook Login with Google

Why sign up and log in

Guitar Tabs Explorer
Harry Styles bass tabs for Adore you

Bass tabs

Tuning: Standard (E A D G)


Intro:
G|-----5--------5-5-3-5-|-----8--------8-8-7-8-|----------------------|-----------------|
D|----------------------|----------------------|-----6--------6-6-5-6-|-----6-----------|
A|-3------3--3----------|-6------6--6----------|----------------------|-----------6-5-8-|
E|----------------------|----------------------|-4------4--4----------|-4------6--------|
Verse 1:
G|-----5--------5-5-3-5-|-----8--------8-8-7-8-|----------------------|-----------------|
D|----------------------|----------------------|-----6--------6-6-5-6-|-----6-----------|
A|-3------3--3----------|-6------6--6----------|----------------------|-----------6-5-8-| x2
E|----------------------|----------------------|-4------4--4----------|-4------6--------|

G|-----5--------5-5-3-5-|-----8--------8-8-7-8-|----------------------|-----------------|
D|----------------------|----------------------|-----6--------6-6-5-6-|-----6-----------|
A|--------3--3----------|-6------6--6----------|----------------------|-----------6-5-8-|
E|----------------------|----------------------|-4------4--4----------|-4------6--------|


Pre-Chorus:
G|--------------------------------------------------------------------------------------|
D|--------------------------------------------------------------------------------------|
A|--------------------------------------------------------------------------------------|
E|--------------------------------------------------------------------------------------|


Chorus:
G|-----5--------5-5-3-5-|-----8--------8-8-7-8-|----------------------|-----------------|
D|----------------------|----------------------|-----6--------6-6-5-6-|-----6-----------|
A|-3------3--3----------|-6------6--6----------|----------------------|-----------6-5-8-| x3
E|----------------------|----------------------|-4------4--4----------|-4------6--------|

Verse 2:
G|-----5--------5-5-3-5-|-----8--------8-8-7-8-|----------------------|-----------------|
D|----------------------|----------------------|-----6--------6-6-5-6-|-----6-----------|
A|-3------3--3----------|-6------6--6----------|----------------------|-----------6-5-8-|
E|----------------------|----------------------|-4------4--4----------|-4------6--------|

G|-----5--------5-5-3-5-|-----8--------8-8-7-8-|----------------------|-----------------|
D|----------------------|----------------------|-----6------6---------|-----6-----------|
A|-3------3--3----------|-6------6--6----------|----------------------|-----------6-5-8-|
E|----------------------|----------------------|-4------4-------------|--------6--------|


Pre-Chorus:
G|-----5--------5-5-3-5-|-----8--------8-8-7-8-|----------------------|-----------------|
D|----------------------|----------------------|-----6--------6-6-5-6-|-----6-----------|
A|-3------3--3----------|-6------6--6----------|----------------------|-----------------|
E|----------------------|----------------------|-4------4--4----------|-4------6--------|


Chorus:
G|-----5--------5-5-3-5-|-----8--------8-8-7-8-|----------------------|-----------------|
D|----------------------|----------------------|-----6--------6-6-5-6-|-----6-----------|
A|-3------3--3----------|-6------6--6----------|----------------------|-----------6-5-8-| x2
E|----------------------|----------------------|-4------4--4----------|-4------6--------|

G|-----5--------5-5-3-5-|-----8--------8-8-7-8-|----------------------|-----------------|
D|----------------------|----------------------|-----6--------6-6-5-6-|-----6-----------|
A|-3------3--3----------|-6------6--6----------|----------------------|-----------------|
E|----------------------|----------------------|-4------4--4----------|-4------6--------|

Guitar Solo:
G|-----5--------5-5-3-5-|-----8--------8-8-7-8-|----------------------|-----------------|
D|----------------------|----------------------|-----6--------6-6-5-6-|-----6-----------|
A|-3------3--3----------|-6------6--6----------|----------------------|-----------6-5-8-| x2
E|----------------------|----------------------|-4------4--4----------|-4------6--------|


Chorus:
G|-----5--------5-5-3-5-|-----8--------8-8-7-8-|----------------------|-----------------|
D|----------------------|----------------------|-----6--------6-6-5-6-|-----6-----------|
A|-3------3--3----------|-6------6--6----------|----------------------|-----------6-5-8-|
E|----------------------|----------------------|-4------4--4----------|-4------6--------|

G|-----5--------5-5-3-5-|-----8--------8-8-7-8-|----------------------|-----------------|
D|----------------------|----------------------|-----6--------6-6-5-6-|-----------------|
A|-3------3--3----------|-6------6--6----------|----------------------|-------------5-8-|
E|----------------------|----------------------|-4------4--4----------|-4---------------|


Outro:
G|-----5--------5-5-3-5-|-----8--------8-8-7-8-|----------------------|-----------------|
D|----------------------|----------------------|-----6--------6-6-5-6-|-----6-----------|
A|-3------3--3----------|-6------6--6----------|----------------------|-----------6-5-8-| x3
E|----------------------|----------------------|-4------4--4----------|-4------6--------|

↓ Add and view comments below ↓

What do you think about this song and these tabs?

Add your comments, questions, rant or a thumbs up below.

Almost there ...

Sign in to get your own page with links to favourite songs and more. You are just one click away...

Login with Facebook Login with Google