Log in

One click and you are in

Login with Facebook Login with Google

Why sign up and log in

Guitar Tabs Explorer
The Strokes bass tabs for Not the same anymore

Not The Same Anymore bass tab by The Strokes

The Strokes bass tabs for Not the same anymore

Bass tabs

Tuning: Standard (E A D G)


G|--------------------------------------------------------------------|
D|-4~-4-4~-4~-4-4~-3~-3-3~-3~-3-3~-2~-2-2~-2~-2-2~--------------------|
A|-------------------------------------------------2~-2-2~-2~-2-2~----|
E|--------------------------------------------------------------------|

G|----------------------------------------------------------------------|
D|-4~-4-4~-4~-4-4~-3~-3-3~-3~-3-3~-2~-2-2~-2~-2-2~----------------------|
A|-------------------------------------------------2~-2-2~-2~-2-2-2-2-2-|
E|----------------------------------------------------------------------|

G|--------------------------------------------------|
D|-4~-4-4~-4~-4-4~-3~-3-3~-3~-3-3~-2~-2-2~-2~-2-2~--|
A|--------------------------------------------------|
E|--------------------------------------------------|

G|--------------------------------------|
D|--------------------------------------|
A|--------------------------------------| 3 Times
E|-10~-10-10~-10~-10-10\5~-5-5~-5~-5-5~-|

G|------------------------------------------------------------------------|
D|-4~-4-4~-4~-4-4~-3~-3-3~-3~-3-3~-2~-2-2~-2~-2-2~--------------------2-3-|
A|-------------------------------------------------2-2~-2-2~-2~-2-2-2-----|
E|------------------------------------------------------------------------|

G|---------------------------------------------------|
D|-4~-4-4~-4~-4-4~-3~-3-3~-3~-3-3~-2~-2-2~-2~-2-2~---|
A|---------------------------------------------------|
E|---------------------------------------------------|

G|-----------------------------------------|
D|-----------------------------------------|
A|-----------------------------------------|
E|-10~-10-10~-10~-10-10\5~-5-5~-5~-5-5~-7-9|

G|---------------------------------------------|
D|---------------------------------------------|
A|---------------------------------------------|
E|-10~-10-10~-10~-10-10-9-7-5~-5-5~-5~-5-5~-7-9|

G|--------------------------------------------------------------|
D|--------------------------------------------------------------|
A|--------------------------------------------------------------|
E|-10~-10-10~-10~-10-10\5~-5-5~-5~-5-5~-7-9-10~-10-10~-10~-10-10|

G|------------------------------------------------------------------|
D|-4~-4-4~-4~-4-4~-3~-3-3~-3~-3-3~-3-7~-7-7~-7~-7-7~----------------|
A|---------------------------------------------------5~-5-5~-5~-5-5~|
E|------------------------------------------------------------------|

G|---------------------------------------------|
D|-4~~~-------------3~~~--------------3/7~~~---|
A|---------------------------------------------|
E|---------------------------------------------|

G|-----------------------------------------|
D|-----------------------------------------|
A|-----------------------------------------|
E|-10~-10-10~-10~-10-10\5~-5-5~-5~-5-5~-7-9|

G|---------------------------------------------|
D|---------------------------------------------|
A|---------------------------------------------| 3 Times
E|-10~-10-10~-10~-10-10-9-7-5~-5-5~-5~-5-5~-7-9|

G|-------9h11/9------------9h11/9------------6--------------6--------|
D|--------------7~----------------7~-------7---7----------7---7------|
A|----12----------------12---------------7-------7~-----7-------7~---| 7 Times
E|-10----------------10----------------5--------------5--------------|


G|-------9h11/9-------------9h11/9------6~~~------------|
D|--------------7~-----------------7~---7~~~------------|
A|----12-----------------12-------------7~~~------------|
E|-10-----------------10----------------5~~~------------|


************************************

| ~ Vibrato
| \ Slide down
| / Slide up
| h Hammer-on

************************************

Almost there ...

Sign in to get your own page with links to favourite songs and more. You are just one click away...

Login with Facebook Login with Google