Log in

One click and you are in

Login with Facebook Login with Google

Why sign up and log in

Guitar Tabs Explorer
Stray Kids guitar tabs for Slump

Guitar tabs with lyrics

Tuning: Drop A chord diagramD MajorD (A chord diagramD MajorD A chord diagramA majorA A chord diagramD MajorD A chord diagramG MajorG A chord diagramBB A chord diagramE MajorE)


Intro:

E|---------------------------------|
B|------8-------5---------------7--|
G|----------------------4----------|
D|---------------------------------|
A|--3/7---7\3-3---3---------2/5---5|
D|--------------------5---5--------|

E|---------------------------------|
B|------8-------5---------------7--|
G|----------------------4----------|
D|---------------------------------|
A|--3/7---7\3-3---3---------2/5---5|
D|--------------------5---5--------|


Verse 1:

Where you go?
Don't let 'em flow
Kono boku dake nokoshite
Konna ni mo I want it more
Ima sukoshi de mo ī kara

E|---------------------------------|
B|------8-------5---------------7--|
G|----------------------4----------|
D|---------------------------------|
A|--3/7---7\3-3---3---------2/5---5|
D|--------------------5---5--------|

E|---------------------------------|
B|------8-------5---------------7--|
G|----------------------4----------|
D|---------------------------------|
A|--3/7---7\3-3---3---------2/5---5|
D|--------------------5---5--------|

Tomaranai tokei no hari
Don't leave me all alone
Hitori de omoidebanashi ni shinaide mō
Boku dake de iru kimochi ni naru kara
Okizari ni naritaku nai
Oh take me to you now

E|---------------------------------|
B|------8-------5---------------7--|
G|----------------------4----------|
D|---------------------------------|
A|--3/7---7\3-3---3---------2/5---5|
D|--------------------5---5--------|

E|---------------------------------|
B|------8-------5---------------7--|
G|----------------------4----------|
D|---------------------------------|
A|--3/7---7\3-3---3---------2/5---5|
D|--------------------5---5--------|

Too fast kimi ni awase mata korobi
Boku wa imada ni koko ni iru yo
Mae ni bokura ga aruita kono michi de

E|---------------------------------|
B|------8-------5---------------7--|
G|----------------------4----------|
D|---------------------------------|
A|--3/7---7\3-3---3---------2/5---5|
D|--------------------5---5--------|

E|---------------------------------|
B|------8-------5---------------7--|
G|----------------------4----------|
D|---------------------------------|
A|--3/7---7\3-3---3---------2/5---5|
D|--------------------5---5--------|


Chorus:

Hitori walking on the way
Hietesugiruyo so cold
Sukoshi zutsu ashi omoku nari slow mode

Guitar 1

E|---------------------------------------------------------------------------|
B|---------------------------------------------------------------------------|
G|---------------------------------------------------------------------------|
D|-2-----5------5------7-----------------------------------------------------|
A|-2-----3------5------5-----------------------------------------------------|
D|-2------------5------------------------------------------------------------|

Guitar 2

E|---12----------------------------------------------------------------------|
B|------10-12-------------10-12-13-------------------------------------------|
G|---------------------12----------11----------------------------------------|
D|---------------------------------------------------------------------------|
A|---------------------------------------------------------------------------|
D|---------------------------------------------------------------------------|

Guitar 3

E|---------------------------------|
B|------8-------5---------------7--|
G|----------------------4----------|
D|---------------------------------|
A|--3/7---7\3-3---3---------2/5---5|
D|--------------------5---5--------|


Saki ni ita boku no sugata wa black or white
Shashin no yō naru kako no mono to

Guitar 1

E|---------------------------------------------------------------------------|
B|---------------------------------------------------------------------------|
G|---------------------------------------------------------------------------|
D|-2-----5------5------7-----------------------------------------------------|
A|-2-----3------5------5-----------------------------------------------------|
D|-2------------5------------------------------------------------------------|

Guitar 2

E|---12----------------------------------------------------------------------|
B|------10-12-------------10-12-13-------------------------------------------|
G|---------------------12----------11----------------------------------------|
D|---------------------------------------------------------------------------|
A|---------------------------------------------------------------------------|
D|---------------------------------------------------------------------------|

Guitar 3

E|---------------------------------|
B|------8-------5---------------7--|
G|----------------------4----------|
D|---------------------------------|
A|--3/7---7\3-3---3---------2/5---5|
D|--------------------5---5--------|


Hitori kiri ni naru no ga kowaku te
Yume no noseta kisha wa ugokanakunatte

Guitar 1

E|---------------------------------------------------------------------------|
B|---------------------------------------------------------------------------|
G|---------------------------------------------------------------------------|
D|-2-----5------5------7-----------------------------------------------------|
A|-2-----3------5------5-----------------------------------------------------|
D|-2------------5------------------------------------------------------------|

Guitar 2

E|---12----------------------------------------------------------------------|
B|------10-12-------------10-12-13-------------------------------------------|
G|---------------------12----------11----------------------------------------|
D|---------------------------------------------------------------------------|
A|---------------------------------------------------------------------------|
D|---------------------------------------------------------------------------|

Guitar 3

E|---------------------------------|
B|------8-------5---------------7--|
G|----------------------4----------|
D|---------------------------------|
A|--3/7---7\3-3---3---------2/5---5|
D|--------------------5---5--------|


Boku dake ga me no mae no ai mo
Mada Todokana sō de kowainda mō, ey

Guitar 1

E|---------------------------------------------------------------------------|
B|---------------------------------------------------------------------------|
G|---------------------------------------------------------------------------|
D|-2-----5------5------7-----------------------------------------------------|
A|-2-----3------5------5-----------------------------------------------------|
D|-2------------5------------------------------------------------------------|

Guitar 2

E|---12----------------------------------------------------------------------|
B|------10-12-------------10-12-13-------------------------------------------|
G|---------------------12----------11----------------------------------------|
D|---------------------------------------------------------------------------|
A|---------------------------------------------------------------------------|
D|---------------------------------------------------------------------------|

Guitar 3

E|---------------------------------|
B|------8-------5---------------7--|
G|----------------------4----------|
D|---------------------------------|
A|--3/7---7\3-3---3---------2/5---5|
D|--------------------5---5--------|


Verse 2:

Hiru mo yoru mo nayami cry
Onaji basho de kawarinai
Arikitari no kyoku ya kashi ka mae to nani mo kawaranai
Mi wo todashite itsumo hazukashikunai you nishite yeah
Kagami ni iru toki ni wa warai jibun wo tsuyoku motte

E|---------------------------------|
B|------8-------5---------------7--|
G|----------------------4----------|
D|---------------------------------|
A|--3/7---7\3-3---3---------2/5---5|
D|--------------------5---5--------|

E|---------------------------------|
B|------8-------5---------------7--|
G|----------------------4----------|
D|---------------------------------|
A|--3/7---7\3-3---3---------2/5---5|
D|--------------------5---5--------|

Sarake dashite oozei no hito mo mae de shoumei
Tama ni jishin nakute kono sugata subete ga eh
Boku igai no minna ga saki ni susunde
Itsumo tonari ni ita yatsu mo tooku nari mo mie nai
Anymore oh yeah yeah

E|---------------------------------|
B|------8-------5---------------7--|
G|----------------------4----------|
D|---------------------------------|
A|--3/7---7\3-3---3---------2/5---5|
D|--------------------5---5--------|

E|---------------------------------|
B|------8-------5---------------7--|
G|----------------------4----------|
D|---------------------------------|
A|--3/7---7\3-3---3---------2/5---5|
D|--------------------5---5--------|

Too fast kimi ni awase mata korobi
Boku wa imada ni koko ni iru yo
Mae ni bokura ga aruita kono michi de

E|---------------------------------|
B|------8-------5---------------7--|
G|----------------------4----------|
D|---------------------------------|
A|--3/7---7\3-3---3---------2/5---5|
D|--------------------5---5--------|

E|---------------------------------|
B|------8-------5---------------7--|
G|----------------------4----------|
D|---------------------------------|
A|--3/7---7\3-3---3---------2/5---5|
D|--------------------5---5--------|


Chorus:

Hitori walking on the way
Hietesugiruyo so cold
Sukoshi zutsu ashi omoku nari slow mode

Guitar 1

E|---------------------------------------------------------------------------|
B|---------------------------------------------------------------------------|
G|---------------------------------------------------------------------------|
D|-2-----5------5------7-----------------------------------------------------|
A|-2-----3------5------5-----------------------------------------------------|
D|-2------------5------------------------------------------------------------|

Guitar 2

E|---12----------------------------------------------------------------------|
B|------10-12-------------10-12-13-------------------------------------------|
G|---------------------12----------11----------------------------------------|
D|---------------------------------------------------------------------------|
A|---------------------------------------------------------------------------|
D|---------------------------------------------------------------------------|

Guitar 3

E|---------------------------------|
B|------8-------5---------------7--|
G|----------------------4----------|
D|---------------------------------|
A|--3/7---7\3-3---3---------2/5---5|
D|--------------------5---5--------|


Saki ni ita boku no sugata wa black or white
Shashin no yō naru kako no mono to

Guitar 1

E|---------------------------------------------------------------------------|
B|---------------------------------------------------------------------------|
G|---------------------------------------------------------------------------|
D|-2-----5------5------7-----------------------------------------------------|
A|-2-----3------5------5-----------------------------------------------------|
D|-2------------5------------------------------------------------------------|

Guitar 2

E|---12----------------------------------------------------------------------|
B|------10-12-------------10-12-13-------------------------------------------|
G|---------------------12----------11----------------------------------------|
D|---------------------------------------------------------------------------|
A|---------------------------------------------------------------------------|
D|---------------------------------------------------------------------------|

Guitar 3

E|---------------------------------|
B|------8-------5---------------7--|
G|----------------------4----------|
D|---------------------------------|
A|--3/7---7\3-3---3---------2/5---5|
D|--------------------5---5--------|


Hitori kiri ni naru no ga kowaku te
Yume no noseta kisha wa ugokanakunatte

Guitar 1

E|---------------------------------------------------------------------------|
B|---------------------------------------------------------------------------|
G|---------------------------------------------------------------------------|
D|-2-----5------5------7-----------------------------------------------------|
A|-2-----3------5------5-----------------------------------------------------|
D|-2------------5------------------------------------------------------------|

Guitar 2

E|---12----------------------------------------------------------------------|
B|------10-12-------------10-12-13-------------------------------------------|
G|---------------------12----------11----------------------------------------|
D|---------------------------------------------------------------------------|
A|---------------------------------------------------------------------------|
D|---------------------------------------------------------------------------|

Guitar 3

E|---------------------------------|
B|------8-------5---------------7--|
G|----------------------4----------|
D|---------------------------------|
A|--3/7---7\3-3---3---------2/5---5|
D|--------------------5---5--------|


Boku dake ga me no mae no ai mo
Mada Todokana sō de kowainda mō, ey

Guitar 1

E|---------------------------------------------------------------------------|
B|---------------------------------------------------------------------------|
G|---------------------------------------------------------------------------|
D|-2-----5------5------7-----------------------------------------------------|
A|-2-----3------5------5-----------------------------------------------------|
D|-2------------5------------------------------------------------------------|

Guitar 2

E|---12----------------------------------------------------------------------|
B|------10-12-------------10-12-13-------------------------------------------|
G|---------------------12----------11----------------------------------------|
D|---------------------------------------------------------------------------|
A|---------------------------------------------------------------------------|
D|---------------------------------------------------------------------------|

Guitar 3

E|---------------------------------|
B|------8-------5---------------7--|
G|----------------------4----------|
D|---------------------------------|
A|--3/7---7\3-3---3---------2/5---5|
D|--------------------5---5--------|


************************************

| /  Slide up
| \  Slide down

************************************

Other versions of Slump

SlumpChords

↓ Add and view comments below ↓

What do you think about this song and these tabs?

Add your comments, questions, rant or a thumbs up below.

Almost there ...

Sign in to get your own page with links to favourite songs and more. You are just one click away...

Login with Facebook Login with Google