Log in

One click and you are in

Login with Facebook Login with Google

Why sign up and log in

Guitar Tabs Explorer
Stray Kids bass tabs for Back door

Bass tabs

Tuning: Half-Step Down (Eb Ab Db Gb)


Intro:

Gb|-----------------------------------------------------|
Db|-----------------------------------------------------|
Ab|-------11-11------7-7-6---------11-11----------------|
Eb|---4---------11\----------4-4---------11\--7-7-6-6---|

Gb|------------------------------|
Db|------------------------------|
Ab|-------11-11------7-7-6-------|
Eb|---4---------11\----------4---|

Verse 1:

Gb|------------------------------------------------------|
Db|------------------------------------------------------|
Ab|-------11-11------7-7-6---------11-11-----------------|
Eb|---4---------11\------------4---------11\--7-7-6------|

Gb|------------------------------------------------------|
Db|------------------------------------------------------|
Ab|-------11-11------7-7-6---------11-11-----------------|
Eb|---4---------11\------------4---------11\--7-7-6-6----|

Gb|------------------------------------------------------|
Db|------------------------------------------------------|
Ab|-------11-11------7-7-6---------11-11-----------------|
Eb|---4---------11\------------4---------11\--7-7-6-6----|

Gb|------------------------------------------------------|
Db|------------------------------------------------------|
Ab|-------11-11------7-7-6---------11-11-----------------|
Eb|---4---------11\------------4---------11\--7-7-6-6----|

Pre-Chorus: don't play


Chorus:

Gb|-----------------------------------------|
Db|-----------------------------------------|
Ab|-----------------------------------------|
Eb|---4--4--4----4--4--4--2--4--4--4----4---|

Gb|-----------------------------------------|
Db|-----------------------------------------|
Ab|-----------------------------------------|
Eb|---0--0--0--0--0--0--0----4--4--4--------|


Verse 2:

Gb|------------------------------------------------------|
Db|------------------------------------------------------|
Ab|-------11-11------7-7-6---------11-11-----------------|
Eb|---4---------11\------------4---------11\--7-7-6------|

Gb|------------------------------------------------------|
Db|------------------------------------------------------|
Ab|-------11-11------7-7-6---------11-11-----------------|
Eb|---4---------11\------------4---------11\--7-7-6-6----|

Gb|------------------------------------------------------|
Db|------------------------------------------------------|
Ab|-------11-11------7-7-6---------11-11-----------------|
Eb|---4---------11\------------4---------11\--7-7-6-6----|

Gb|------------------------------------------------------|
Db|------------------------------------------------------|
Ab|-------11-11------7-7-6---------11-11-----------------|
Eb|---4---------11\------------4---------11\--7-7-6-6----|


Pre-Chorus: don't play


Chorus:

Gb|-----------------------------------------|
Db|-----------------------------------------|
Ab|-----------------------------------------|
Eb|---4--4--4----4--4--4--2--4--4--4----4---|

Gb|-----------------------------------------|
Db|-----------------------------------------|
Ab|-----------------------------------------|
Eb|---0--0--0--0--0--0--0----4--4--4--------|

Gb|------------------------|
Db|------------------------|
Ab|---11-11----------------|
Eb|---------11\--7-7-6-6---|


Bridge:
  on third beat (add dead notes in between notes if you like)
Gb|---------------------------------------------------------------------------|
Db|---------------------------------------------------------------------------|
Ab|----------7------------10--10------11-----------11-x---9-x-----------------|
Eb|---------------------------------------------------------------------------|

Gb|------------------------------------------------------|
Db|------------------------------------------------------|
Ab|----------7--7---------10-13-------11-11-11-11~-------|
Eb|------------------------------------------------------|

don't play until the chorus


Chorus:

Gb|-----------------------------------------|
Db|-----------------------------------------|
Ab|-----------------------------------------|
Eb|---0--0--0--0--0--0--0----4--4--4--------|


Outro:

Gb|-----------------------------------------|
Db|-----------------------------------------|
Ab|-----------------------------------------|
Eb|---4--4--4----4--4--4--2--4--4--4--------|

Gb|-----------------------------------------|
Db|-----------------------------------------|
Ab|-----------------------------------------|
Eb|---0--0--0--0--0--0--0----4--4--4--------|

Gb|-----------------------------------------------------|
Db|-----------------------------------------------------|
Ab|-------11-11------7-7-6---------11-11----------------|
Eb|---4---------11\----------4-4---------11\--7-7-6-6---|

Gb|-----------------------------------------------------|
Db|-----------------------------------------------------|
Ab|-------11-11------7-7-6---------11-11----------------|
Eb|---4---------11\----------4-4---------11\--7-7-6-6---|

Gb|-----------------------------------------------------|
Db|-----------------------------------------------------|
Ab|-------11-11------7-7-6---------11-11----------------|
Eb|---4---------11\----------4-4---------11\--7-7-6-6---|

Gb|------------------------------|
Db|------------------------------|
Ab|-------11-11------7-7-6-------|
Eb|---4---------11\----------4---|


************************************

| x  Dead note
| \  Slide down
| ~  Vibrato

************************************

Almost there ...

Sign in to get your own page with links to favourite songs and more. You are just one click away...

Login with Facebook Login with Google