Log in

One click and you are in

Login with Facebook Login with Google

Why sign up and log in

Guitar Tabs Explorer
Strawberry Girls bass tabs for Agua verde

Bass tabs

(0:15) Intro

G|---------------------------------------------------------------------------|
D|---------------------------------------------------------------------------|
A|--------9-----------7-----------------5-5-5-5-5-5--8----------------------|
E|--3--7--------1--5-------5\---5\---5---------------------------------------|

(0:37)

G|------------------------------------------|
D|------------------------------------------|
A|--0-0--3-3--0--3--5--3--------------------| x3
E|------------------------0-0--3-3--0--3--4-|

G|-------------------------|
D|-------------------------|
A|--5--5--5--5--8--8--8--8-|
E|-------------------------|


G|------------------------------------------|
D|------------------------------------------|
A|--0-0--3-3--0--3--5--3--------------------| x3
E|------------------------0-0--3-3--0--3--4-|


G|---------------------------------------------------------------------------|
D|---------------------------------------------------------------------------|
A|---------------------------------------------------------------------------|
E|-5--5--5--5--8--8--8--8----5--5--5--5--8--8--8--8---5-5-5-5---8-----------|

(1:03)

G|--------|
D|--------|
A|--------| x14
E|---5-3--|

G|---------------------------------------------------------------------------|
D|---------------------------------------------------------------------------|
A|--3-5--8--8--8--8--3--3--3--3---5--5--5--5--5--5--5-5----------------------|
E|---------------------------------------------------------------------------|

G|--------|
D|--------|
A|--------| x14
E|---5-3--|


G|---------------------------------------------------------------------------|
D|---------------------------------------------------------------------------|
A|--3-5--8--8--8--8--3--3--3--3---5--5--5--5--5--5--5-5----------------------|
E|---------------------------------------------------------------------------|

G|--------|
D|--------|
A|--------| x14
E|---5-3--|


G|---------------------------------------------------------------------------|
D|---------------------------------------------------------------------------|
A|--3-5--8--8--8--8--3--3--3--3---5--5--5--5--5--5--5--5---------------------|
E|---------------------------------------------------------------------------|

G|--------|
D|--------|
A|--------| x14
E|---5-3--|


G|---------------------------------------------------------------------------|
D|---------------------------------------------------------------------------|
A|--3-5--8--8--8--8--3--3--3--3---5--5--5--5--5--5--5--5---------------------|
E|---------------------------------------------------------------------------|

(1:49)

G|--------------|
D|--------------|
A|--------------|
E|--5---5----5--|


G|--------------------------------------------------------------|
D|--------------------------------------------------------------|
A|-----------------10--------------10---------------10----------|
E|---13\8---13--8------10---13--8-----10---13---8------10-------|

G|---------------------------------------------------------------------------|
D|---------------------------------------------------------------------------|
A|---------10--10--10--10--10--10--------------------------------------------|
E|--13--8-------------------------10--10--10--10--10--10---------------------|

G|-----------------------------------------------------------------|
D|-----------------------------------------------------------------|
A|--------------10--------------10--10--10--12---------------------|  x3
E|--13--13--13-------8--8--8--8----------------10---10--10--10--12-|


G|---------------------------------------------------------------------------|
D|---------------------------------------------------------------------------|
A|---------------10--------------10--10--10--10--10--10--11--11--0-----------|
E|--13--13--13-------8--8--8--8---------------------------------------5\-----|

(2:56)

G|--------------------------------------------|
D|--------------------------------------------| x3
A|-----------------5--5---0-5---0-5---0-5--7--|
E|---5--5-0---0--1----------------------------|


G|---------------------------------------------------------------------------|
D|---------------------------------------------------------------------------|
A|---0---7-----8--------0----7----8----0---7-----8--------0----7----8--------|
E|-----------------8---------------------------------8-----------------------|


G|--------------------------------------------------------------------------------|
D|-----------------------------------------------------------------------2--------| x4
A|-------------------------------------8--7---------5--5--5-----5--3--5------5----|
E|----5--5--5----0--0--0----1--1--1----------8---5-----------------------------4--|


G|-----------------------------------------7-|
D|----------7---------2----------3-----------| x2
A|-----------------------------------5--5----|
E|--5--5--------0--0--------1--1-------------|


G|-----------------------------------------------------------------------|
D|-----------------------------------------------------------------------|
A|-------------------------------------------------5--5------------------|
E|---5-5---5--5--5--2--2---2--2-2---1--1---1-1--1-----------4--4--4------|


G|-----------------------------------------------------------------------|
D|-----------------------------------------------------------------------|
A|-------------------------------------------------5--5------------------| x2
E|---5-5---5--5--5--2--2---2--2-2---1--1---1-1--1-------4--4--4--4--4--4-|

G|----------------------------------------------------------------------------------------|
D|----------------------------------------------------------------------------------------|
A|----------------------------------------------------------5--5-5--5--5-5----------------| x2
E|---5--5--5-5-5-5-5-5--2--2-2-2-2-2--3--3--1-1-1-1-1-1-1-1-------------------4--4--4-4-4-|


G|---------------------------------------------------------|
D|---------------------------------------------------------|
A|--------------------------5--5--5--5---------------------|
E|-5---5--2---2--3--2--1--1--------------4--4--4--4--------|

G|---------------------------------------------------------|
D|---------------------------------------------------------|
A|--------------------------5--5--5--5---------------------|
E|-5---5--2---2--3--2--1--1--------------4--4--4--4---5~---|


************************************

| \ Slide down
| ~ Vibrato

Almost there ...

Sign in to get your own page with links to favourite songs and more. You are just one click away...

Login with Facebook Login with Google