Search tabs and chords

Browse bands and artists

A B C D E F G H I J K L M N O P Q R S T U V W X Y Z #

Log in

[ Register here | Forgot password ]

Guitar Tabs Explorer
Print

Guitar chords with lyrics:

Livin For The Night chords by George Strait

Livin` For The Night
George Strait

Intro  C  Em7  C  F  Dm    C  Em7  C  F  Dm

C                        Em7
Everydays a lifetime without you
        F
Hard to get through

Since you`ve gone
     C                        Em7
So I do the only thing I know how to
       Fmaj7  G
To get by
           F       C      Em7  C  F
I`m livin` for the night

C                                   Em7
I`ve drawn all the curtains in this old house
            Dm
To keep the sun out
           F     G
And off my face
C                                       Em7
Friends stop by to check in `cause I`ve checked out
C              F     G
I tell `em I`m fine
         Em             C     G C
I`m just livin` for the night.....

   F
Daylight can`t hide the tears I cry
                                 G7
The pain that came with your goodbye
    Am            Am7            G6
The memories that keep me out of sight
F
Every night I venture out
                               G        C  G6
Into those neon arms that hold me tight........
                   F
I`m livin` for the night

  F   Am Am7 G6  F  G  G7  (OR)

E--6-9-11-9-8-6---------|
B-----------------------|
G-----------------------|
D-----------------------|
A-----------------------|
E-----------------------|

E-6-8-9-11-9-8-6---6-----------------------|
B----------------9---9-6-9-6---6------4----|
G----------------------------8---8--6---3--|
D------------------------------------------|
A------------------------------------------|
E------------------------------------------|

(this is a mandolin part but this is close for guitar)
E------------------------------------------------------------------|
B--11-13-14-13-11-11---------------------11-13-14-13-11-11--13-14--|
G---------------------10-11-13-11-10-10----------------------------|
D------------------------------------------------------------------|
A------------------------------------------------------------------|
E------------------------------------------------------------------|


      C                   Em7
I`m a whole lot easier to talk to
          F          Fmaj7
When I`ve had a few
               G
I settle down
C                                      Em7
Whiskey kills the man you`ve turned me into
    C      F       G6
And I come alive
                   C     G C
I`m livin` for the night

   F
Daylight can`t hide the tears I cried

The pain that came with your goodbye
    Am            Am7            Em    C
The memories that keep me out of sight
F
Every night I venture out
                               G7       G
Into those neon arms that hold me tight
G7  C      F       C     G7
I`m livin` for the night
                   C      G
I`m livin` for the night
C                        Em      Em7  Fmaj7
Everydays a lifetime without you

Living for the Night is a song co-written and recorded by American country music singer George Strait. Written by Strait with his son, Bubba, and Dean Dillon, it is the 88th single release of his career, and the first single that Strait has co-written. It was released in May 2009 as the first single from his album Twang. The song was released to radio on May 28, 2009, one day after CBS aired a George Strait tribute show in which other musical artists performed covers of his songs.

Comments

George Strait guitar chords for Livin for the night