Log in

One click and you are in

Login with Facebook Login with Google

Why sign up and log in

Guitar Tabs Explorer
Stone Sour bass tabs for The day i let go

Bass tabs

Tuning E flat - Drop C#
C#-G#-C#-F#
Bass Guitar

[Drums Intro]
[Intro] (x2)
     p   h h p   h p   h
G|-------------------------------------|-------------------------------------|
D|------2--0--2--3--3--2--5--2--0--2---|------2--0--2--3--5--2--2--2--2--2---|
A|-------------------------------------|-------------------------------------|
E|---0---------------------------------|---0---------------------------------|

G|-------------------------------------|--------------------------------------|
D|------2--0--2--3--3--2--5--2--0--2---|------2--0--2--3--3--/7--5--5--5--5---|
A|-------------------------------------|--------------------------------------|
E|---0---------------------------------|---0----------------------------------|


[Verse 1] (x2)
G|-------------------------------------|-------------------------------------|
D|------2--0--2--3--3--2--5--2--0--2---|------2--0--2--3--5--2--2--2--2--2---|
A|-------------------------------------|-------------------------------------|
E|---0---------------------------------|---0---------------------------------|

G|-------------------------------------|--------------------------------------|
D|------2--0--2--3--3--2--5--2--0--2---|------2--0--2--3--3--/7--5--5--5--5---|
A|-------------------------------------|--------------------------------------|
E|---0---------------------------------|---0----------------------------------|


[Chorus]
G|----------------------------------------------------|
D|----------------------------------------------------|
A|----------------------------------------------------|
E|---8--8--8--8--8--8--8--8--8--8--8--8--8--8--8--8---|

G|----------------------------------------------------|
D|----------------------------------------------------|
A|----------------------------------------------------|
E|---3--3--3--3--3--3--3--3--3--3--3--3--3--3--3--3---|

[Verse 2] (x2)
G|-------------------------------------|-------------------------------------|
D|------2--0--2--3--3--2--5--2--0--2---|------2--0--2--3--5--2--2--2--2--2---|
A|-------------------------------------|-------------------------------------|
E|---0---------------------------------|---0---------------------------------|

G|-------------------------------------|--------------------------------------|
D|------2--0--2--3--3--2--5--2--0--2---|------2--0--2--3--3--/7--5--5--5--5---|
A|-------------------------------------|--------------------------------------|
E|---0---------------------------------|---0----------------------------------|


[Chorus] (x2)
(4 Times Played)
G|----------------------------------------------------|
D|----------------------------------------------------|
A|----------------------------------------------------|
E|---8--8--8--8--8--8--8--8--8--8--8--8--8--8--8--8---|

G|----------------------------------------------------|
D|----------------------------------------------------|
A|----------------------------------------------------|
E|---3--3--3--3--3--3--3--3--3--3--3--3--3--3--3--3---|


[Verse 3] (x2)
(3 Times Played)
G|-------------------------------------|-------------------------------------|
D|------2--0--2--3--3--2--5--2--0--2---|------2--0--2--3--5--2--2--2--2--2---|
A|-------------------------------------|-------------------------------------|
E|---0---------------------------------|---0---------------------------------|

G|-------------------------------------|--------------------------------------|
D|------2--0--2--3--3--2--5--2--0--2---|------2--0--2--3--3--/7--5--5--5--5---|
A|-------------------------------------|--------------------------------------|
E|---0---------------------------------|---0----------------------------------|

   1  2  3  4   1  2  3  4 -  1  2  3  4   1  2  3  4 - Count
G|------------------|-------------------|
D|------------------|-------------------|
A|------------------|-------------------|
E|---0--------------|---0---------------|


[Chorus]
G|----------------------------------------------------|
D|----------------------------------------------------|
A|----------------------------------------------------|
E|---3--3--3--3--3--3--3--3--3--3--3--3--3--3--3--3---|

G|----------------------------------------------------|
D|----------------------------------------------------|
A|----------------------------------------------------|
E|---8--8--8--8--8--8--8--8--8--8--8--8--8--8--8--8---|

G|----------------------------------------------------|
D|----------------------------------------------------|
A|----------------------------------------------------|
E|---3--3--3--3--3--3--3--3--3--3--3--3--3--3--3--3---|

G|----------------------------------------------------|
D|----------------------------------------------------|
A|----------------------------------------------------|
E|---8--8--8--8--8--8--8--8--8--8--8--8--8--8--8--8---|

G|----------------------------------------------------|
D|----------------------------------------------------|
A|----------------------------------------------------|
E|---3--3--3--3--3--3--3--3--3--3--3--3--3--3--3--3---|

G|----------------------------------------------------|
D|----------------------------------------------------|
A|----------------------------------------------------|
E|---8--8--8--8--8--8--8--8--8--8--8--8--8--8--8--8---|

G|----------------------------------------------------|
D|----------------------------------------------------|
A|----------------------------------------------------|
E|---3--3--3--3--3--3--3--3--3--3--3--3--3--3--3--3---|


[Instrumental] (x2)
(3 Times Played)
G|-------------------------------------|-------------------------------------|
D|------2--0--2--3--3--2--5--2--0--2---|------2--0--2--3--5--2--2--2--2--2---|
A|-------------------------------------|-------------------------------------|
E|---0---------------------------------|---0---------------------------------|

G|-------------------------------------|--------------------------------------|
D|------2--0--2--3--3--2--5--2--0--2---|------2--0--2--3--3--/7--5--5--5--5---|
A|-------------------------------------|--------------------------------------|
E|---0---------------------------------|---0----------------------------------|

   1  2  3  4   1  2  3  4 -  1  2  3  4   1  2  3  4 - Count
G|------------------|
D|------------------|
A|------------------|
E|---0--------------|


************************************

| / Slide up

Almost there ...

Sign in to get your own page with links to favourite songs and more. You are just one click away...

Login with Facebook Login with Google