Log in

One click and you are in

Login with Facebook Login with Google

Why sign up and log in

Guitar Tabs Explorer
Al Stewart chords for Lord grenville (Ver. 2)

Guitar chords with lyrics

  • Tuning: Standard tuning
  • Difficulty: Beginner
Artist - Al Stewart
                                         ☠☠☠☠☠☠☠☠☠☠☠☠☠☠☠☠☠☠☠☠☠
                                         Song - Lord Grenville
                                        ☠☠☠☠☠☠☠☠☠☠☠☠☠☠☠☠☠☠☠☠☠☠☠
                                        Album - Year Of The Cat
                                       ☠☠☠☠☠☠☠☠☠☠☠☠☠☠☠☠☠☠☠☠☠☠☠☠☠
                                          Tabbed By - Ayreon77
                                         ☠☠☠☠☠☠☠☠☠☠☠☠☠☠☠☠☠☠☠☠☠☠
There is a chord tab for this song on UG, but its missing the solos.


                                                           A chord diagramC# minorC#m

VERSE 1                                                   [-4--br-]
********                                                  [-5--6--]
A chord diagramA augmentedA                                   A chord diagramC# minorC#m                   [-6-----]
Go and tell Lord Grenville that the tide is on the turn   [-6-----]
A chord diagramF# minorF#m                             A chord diagramE MajorE   A chord diagramD MajorD              A chord diagramD MajorD  A chord diagramB minorBm  [-------]
It`s time to haul the anchor up and leave the land astern [-------]
A chord diagramC#C#                            A chord diagramD MajorD       A chord diagramBB
We`ll be gone before the dawn returns           [---------------]
A chord diagramA augmentedA                  A chord diagramG+G      A chord diagramA augmentedA  A chord diagramFF   A chord diagramG# minorG#m            [---------------]
Like voices on the wind                         [---------------]
                                                [-----0---------]
                                                [-2-4---4-2-0---]
00:22                                           [-------------4-]
[-----------------------------]
[-----------------------------]
[--------s-----s---rbp--------]
[-7--9--9-11--9-7--9--7-------]
[-----------------------9---7-]
[-------------------------9---]

---------------------------------------------------------------

VERSE 2                                                    [---------------]
********                                                   [---------------]
A chord diagramA augmentedA                                   A chord diagramC# minorC#m                    [-----2-1-------]
Go and tell Lord Grenville that our dreams have run aground[-2-4-----4-2-4-]
A chord diagramF# minorF#m                           A chord diagramE MajorE A chord diagramD MajorD            A chord diagramD MajorD A chord diagramB minorBm          [---------------]
There`s nothing here to keep us in this shanty town        [---------------]
A chord diagramC#C#                                A chord diagramD MajorD     A chord diagramBB
None of us are caring where we`re bound          [---------------]
A chord diagramA augmentedA                  A chord diagramG+G      A chord diagramA augmentedA  A chord diagramFF   A chord diagramG# minorG#m             [---------------]
Like voices on the wind                          [---------------]
                                                 [-----0---------]
                                                 [-2-4---4-2-0---]
00:52                                            [-------------4-]
[--------------|----------------------]
[-8------------|----------------------]
[---7--s-------|------s--------s------]
[-----9-7-5--7-|-6-7-7-9--11-11-12-11-]
[--------------|----------------------]
[--------------|----------------------]

---------------------------------------------------------------

CHORUS                                          [------------------------]
*******                                         [------------------------]
A chord diagramA augmentedA            A chord diagramD MajorD                    A chord diagramE MajorE             [------------------------]
And come the day you`ll hear them saying        [------------------------]
                        A chord diagramA augmentedA                       [-------2--------0---0---]
They`re throwing it all away                    [-0-2-4----0-2-4-------0-]

A chord diagramD MajorD               A chord diagramE MajorE         A chord diagramC#C#              A chord diagramFF (go to solo chords)
Nothing more to say, just throwing it all away

---------------------------------------------------------------
SMALL SOLO - A chord diagramF# minorF#m A chord diagramFF A chord diagramC# minorC#m A chord diagramFF A chord diagramG+G   A chord diagramD MajorD A chord diagramE MajorE (strum A chord diagramE MajorE for abit)
***********
01:12       h            s  p                             s  s
[----------7-9-9-|-8---10-12-10----10-|-10-12-13-12-10--12-14-12-12-]
[-7--9-10--------|---8----------13----|-----------------------------]
[----------------|--------------------|-----------------------------]
[----------------|--------------------|-----------------------------]
[----------------|--------------------|-----------------------------]
[----------------|--------------------|-----------------------------]


[---h--p----------]
[-10-12-10--s-----]
[----------9-11-9-]
[-----------------]
[-----------------]
[-----------------]
                                                      [------------h-----]
------------------------------------------------------[-------7-9-9-10-9-]

VERSE 3                                               [-6-7-9------------]
********                                              [------------------]
A chord diagramA augmentedA                                  A chord diagramC# minorC#m                [------------------]
Go and fetch the captain`s log and tear the pages out [------------------]
A chord diagramF# minorF#m                             A chord diagramE MajorE   A chord diagramD MajorD               A chord diagramD MajorD A chord diagramB minorBm
We`re on our way to nowhere now, can`t bring the helm about
A chord diagramC#C#                         A chord diagramD MajorD     A chord diagramBB
None of us are left in any doubt       [--9---7-|--h-----]
A chord diagramA augmentedA                A chord diagramG+G      A chord diagramA augmentedA  A chord diagramFF   A chord diagramG# minorG#m     [-9-9-7--|-7-9-10-]
We won`t be back again                 [--------|--------]
                                       [--------|--------]
                                       [--------|--------]
[------p---s-----------s--------]      [--------|--------]
[-10--8-7-8-10-7--6-7-7-9-10-10-]
[-------------------------------]
[-------------------------------]
[-------------------------------]
[-------------------------------]


--------------------------------------------------------     p        s

VERSE 4                                                  [-10-9-7----7-9-]
********                                                 [--------10-----]
A chord diagramA augmentedA                                   A chord diagramC# minorC#m                  [---------------]
Send a message to the fleet they`ll search for us in vain[---------------]
A chord diagramF# minorF#m                                A chord diagramE MajorE A chord diagramD MajorD            A chord diagramD MajorD A chord diagramB minorBm   [---------------]
We won`t be there among the reaches of the Spanish Main  [---------------]
A chord diagramC#C#                                A chord diagramD MajorD       A chord diagramBB
Tell the ones we left home not to wait
   02:12                         02:21
      s
   [-9-7------|------h--p--------|-8-]
   [-sound----|9-10-9-10-9-------|-8-]
   [-like ----|------------11-10-|-9-]
   [-a pinch--|------------------|---]
   [-harmonic-|------------------|---]
   [-sound----|------------------|---]


A chord diagramA augmentedA                      02:23
Won`t be back again   [-12----------|-10----------|----]
A chord diagramD MajorD                     [----14---p---|----12---p---|----]
Won`t be back again   [-------14-12-|-------12-11-|-10-]
A chord diagramF# minorF#m                   [-------------|-------------|----]
Won`t be back again   [-------------|-------------|----]
A chord diagramFF                     [-------------|-------------|----]
Won`t be back again


---------------------------------------------------------------

CHORUS
*******
A chord diagramA augmentedA            A chord diagramD MajorD                    A chord diagramE MajorE
And come the day you`ll hear them saying
                        A chord diagramA augmentedA
They`re throwing it all away

A chord diagramD MajorD               A chord diagramE MajorE         A chord diagramC#C#              A chord diagramFF (go to solo chords)
Nothing more to say, just throwing it all away

---------------------------------------------------------------
SMALL SOLO - A chord diagramF# minorF#m A chord diagramFF A chord diagramC# minorC#m A chord diagramFF A chord diagramG+G   A chord diagramD MajorD A chord diagramE MajorE (strum A chord diagramE MajorE for abit)
***********
 02:44                           s            s
[--s-----p-----|--h----rb---|--10-12--10----10-12---|-----------------------]
[-7-9--10-9-10-|10-12-12--9-|8-----------13-------12|13-11--11-10------10---]
[--------------|------------|-----------------------|---------------11----12]
[--------------|------------|-----------------------|-----------------------]
[--------------|------------|-----------------------|-----------------------]
[--------------|------------|-----------------------|-----------------------]


---------------------------------------------------------------

BRIDGE
*******
A chord diagramE minorEm          A chord diagramG+G            A chord diagramD MajorD
Our time is just a point along a line
A chord diagramDmDm        A chord diagramFF               A chord diagramA augmentedA
That runs forever with no end
A chord diagramE minorEm      A chord diagramG+G                     A chord diagramD MajorD
I never thought that we would come to find
A chord diagramDmDm        A chord diagramFF                A chord diagramA augmentedA         A chord diagramFF      A chord diagramA augmentedA
Ourselves upon these rocks again, oh no

A chord diagramG# minorG#m  A chord diagramFF   A chord diagramA augmentedA  -  A chord diagramFF   A chord diagramG# minorG#m    A chord diagramA augmentedA   (strum A chord diagramA augmentedA for abit)

Play This Through The Bridge part above
****************************************
 03:05
[-----------------|--------|------------------------|------------]
[-----------------|--------|------------------------|------------]
[-----------------|--------|------------------------|------------]
[---------------0-|-0-2--0-|-3--3-2-2---------------|------------]
[-------------2---|--------|----------2-0--0--------|--------2-0-]
[-0-0-0-2-3-5-----|--------|------------------3-2-0-|-0--0-2-----]


[-------------------|----------|----------|--s-s-----------]
[-------------------|---brp----|-brp------|-3-5-3---6--5-5-]
[-------------------|---4--2-4-|-4--2-----|----------------]
[-----0-2--0--2-3-2-|-2--------|------4-2-|----------------]
[-0-2---------------|----------|----------|----------------]
[-------------------|----------|----------|----------------]

   h h     h
[-5-7-9-7-9-10------]
[--------------9-10-]
[-------------------]
[-------------------]
[-------------------]
[-------------------]

---------------------------------------------------------------
SMALL SOLO -  A chord diagramA augmentedA    A chord diagramD MajorD  A chord diagramFF  A chord diagramA augmentedA  A chord diagramFF  A chord diagramA augmentedA
***********
03:51
 Guitar 1
             p                    p                    p
[-12-12-12-12-9------|-12-12-12-12-9------|-10-10-10-10-9---s--]
[---------------10-9-|----------------9-8-|---------------10-7-]
[--------------------|--------------------|--------------------]
[--------------------|--------------------|--------------------]
[--------------------|--------------------|--------------------]
[--------------------|--------------------|--------------------]

             p                    p
[-10-10-10-10-9---s--|-10-10-10-10-9---s--]
[---------------10-6-|---------------10-5-]
[--------------------|--------------------]
[--------------------|--------------------]
[--------------------|--------------------]
[--------------------|--------------------]


 Guitar 1
[----------5--7--9--]
[-5--6--8-----------]
[-------------------]
[-------------------]
[-------------------]
[-------------------]
|                   |
|Guitar 2           |
|                   | 04:06 b
[---10-9-----7---9--] [----20-]
[--------10---------] [-17----]
[-------------------] [-------]
[-------------------] [-------]
[-------------------] [-------]
[-------------------] [-------]

A chord diagramA augmentedA                                   A chord diagramC# minorC#m
Go and tell Lord Grenville that the tide is on the turn

 Guitar 1
    br               br
[-19------------h---21--|------------p---------|----------------------]
[-------17-17-17-22-----|-17-17-17-17-14---s---|-17-17-17-17-14---s---]
[-----------------------|----------------14-13-|----------------13-14-]
[-----------------------|----------------------|----------------------]
[-----------------------|----------------------|----------------------]
[-----------------------|----------------------|----------------------]
|                                                                     |
|Guitar 2                                                             |
|               p                    p                      p         |
[-------12-12-12-9--s---|-12-12-12-12-9-----s--|-12-12-12-12-9---s----]
[------------------9-10-|----------------10-9--|----------------9-10--]
[-----------------------|----------------------|----------------------]
[-----------------------|----------------------|----------------------]
[-----------------------|----------------------|----------------------]
[-----------------------|----------------------|----------------------]


Guitar 1
   br        br                                 p  s              b
[-21--------19---19------------------h--------17-16-------p------14-]
[----------------------------------14-15-14----------17-17-14-------]
[-------------------------------------------------------------13----]
[-------------------------------------------------------------------]
[-------------------------------------------------------------------]
[-------------------------------------------------------------------]
|                                                                   |
|Guitar 2                                                           |
|            p                    p                     p           |
[-12-12-12-12-9---s--|-12-12-12-12-9---s---|-12-12-12-12-9---s------]
[---------------10-9-|----------------9-10-|---------------10-9-----]
[--------------------|---------------------|------------------------]
[--------------------|---------------------|------------------------]
[--------------------|---------------------|------------------------]
[--------------------|---------------------|------------------------]



 Guitar 1
[--12-12-9-rbp--------|----------------------|----------------------]
[----------12--10-10--|-17-17-17-17-14---s---|-17-17-17-17-14---s---]
[---------------------|----------------14-13-|----------------13-14-]
[---------------------|----------------------|----------------------]
[---------------------|----------------------|----------------------]
[---------------------|----------------------|----------------------]
|                                                                   |
|Guitar 2                                                           |
|            p                     p                      p         |
[-12-12-12-12-9---s---|-12-12-12-12-9----s---|-12-12-12-12-9---s----]
[----------------9-10-|----------------10-9--|----------------9-10--]
[---------------------|----------------------|----------------------]
[---------------------|----------------------|----------------------]
[---------------------|----------------------|----------------------]
[---------------------|----------------------|----------------------]
Repeat this last bar and fade.

play A chord diagramA augmentedA A chord diagramC# minorC#m chords to fade


A chord diagramA augmentedA nice tune. Enjoy
ⓘ This is the 2nd version of guitar chords for 'Lord Grenville' by Al Stewart, a male folk artist from Glasgow, Scotland, UK. Al Stewart was born in 1945. Al Stewart is known for his good natured folk music.

Other versions of Lord Grenville

Lord grenvilleChords

Almost there ...

Sign in to get your own page with links to favourite songs and more. You are just one click away...

Login with Facebook Login with Google