Log in

One click and you are in

Login with Facebook Login with Google

Why sign up and log in

Guitar Tabs Explorer
Steve Lacy bass tabs for Basement jack

Bass tabs

Tuning: Standard (E A D G)


Intro:

G|-------15--13--------13-------11----------|
D|--13------13-----11----------11-----11/---|
A|---------13-----------------11------------| x8
E|------------------------------------------|

Verse 1:

G|-------15--13----------13----11----------|
D|--13------13------11--------11---11/-----|
A|---------13----------------11------------| x8
E|-----------------------------------------|


Chorus 1:

G|--------------------------------------|
D|--------8----6--------6---4-----------|
A|---6-------6-----4-------4-----4/-----| x8
E|---------6--------------4-------------|



Verse 2:

G|-------15--13----------13----11----------|
D|--13------13------11--------11---11/-----|
A|---------13----------------11------------| x8
E|-----------------------------------------|


Chorus 2:

G|--------------------------------------|
D|--------8----6--------6---4-----------|
A|---6-------6-----4-------4-----4/-----| x8
E|---------6--------------4-------------|


************************************

| / Slide up

************************************

Almost there ...

Sign in to get your own page with links to favourite songs and more. You are just one click away...

Login with Facebook Login with Google