Guitar Tabs Explorer
Steve Jansen And Richard Barbieri bass tabs for Light years

Light Years bass tab


Be the first to rate


Bassm99Author: Bassm99

Light Years bass tab by Steve Jansen And Richard Barbieri

`Light Years` from the album `Other Worlds In A Small Room` (1996). Written by Barbieri.

Bass tabs

Print
  • Tuning: Standard tuning
  • Difficulty: Novice
Tabbed by: bassm99
E-mail: alanmatthews1966@yahoo.co.uk

Tuning: B, E, A, D, G [5 String Bass]



Bass Starts at 7:22

Intro: (Play Once)

G|--------------------------------------------------------------------------|
D|--------------------------------------------------------------------------|
A|--------------------------------------------------------------------------|
E|--------------------------------------------------------------------------|
B|--3-3-3-3-3-3-3-----------------------------------------------------------|

Part One: (Play Twice)

G|--------------------------------------------------------------------------|
D|--------------------------------------------------------------------------|
A|-------------------------------0-0--2-2-2-2-2-2-2-2--2-2-2-2-2-2-4-4------|
E|--2-2-2-2-2-2-2-2--2-2-2-2-2-2--------------------------------------------|
B|--------------------------------------------------------------------------|

G|--------------------------------------------------------------------------|
D|--------------------------------------------------------------------------|
A|--------------------------------------------------------------------------|
E|--5-5-5-5-5-5-5-5--5-5-5-5-5-5-5-5--2-2-2-2-2-2-2-2--2-2-2-2-0-0-0-0------|
B|--------------------------------------------------------------------------|

Part Two: (Play Once)

G|--------------------------------------------------------------------------|
D|--------------------------------------------------------------------------|
A|-------------------------------0-0--2-2-2-2-2-2-2-2--2-2-2-2-2-2-4-4------|
E|--2-2-2-2-2-2-2-2--2-2-2-2-2-2--------------------------------------------|
B|--------------------------------------------------------------------------|

G|--------------------------------------------------------------------------|
D|--------------------------------------------------------------------------|
A|--------------------------------------------------------------------------|
E|--5-5-5-5-5-5-5-5--5-5-5-5-5-5-5-5--2-2-2-2-2-2-2-2--0-0-0-0-0-0-0-0------|
B|--------------------------------------------------------------------------|

Repeat Part One: (Play 3 Times)

Repeat Part Two: (Play Twice)

Part Three: (Play 8 Times)

G|--------------------------------------------------------------------------|
D|--------------------------------------------------------------------------|
A|--------------------------------------------------------------------------|
E|--2-2-2-2-2-2-2-2---------------------------------------------------------|
B|--------------------------------------------------------------------------|

Part Four: (Play 15 Times To Fade Out)

G|--------------------------------------------------------------------------|
D|--------------------------------------------------------------------------|
A|--------------------------------------------------------------------------|
E|--------------------------------------------------------------------------|
B|--3-3-3-3-3-3-3-3---------------------------------------------------------|

Bass Ends: (10:32)

Comment this song and these bass tabs

Do you have corrections, comments on the bass tabs, thoughts about the song or a message to the author? Write them below.