Born To Be Wild by Steppenwolf

Born To Be Wild chords by Steppenwolf

Guitar chords with lyrics

Born to be Wild
Written by: Blue Oyster Cult
Performed by: Steppenwolf
Tabbed by: Daniel Thompson


Intro:
e------------------------
b------------------------
g-9--9-9----9-9--9-7-6-7-
d-9--9-9----9-9--9-7-7-7-
a-7--7-7----7-7--7-------
e------------------------

Verse:
e-----------------------------
b-----------------------------
g-x-x-x-x-x-x-x--9-9--9-7-6-7-
d-x-x-x-x-x-x-x--9-9--9-7-7-7-
a-x-x-x-x-x-x-x--7-7--7-------
e-----------------------------
 Get your...

Pre-Chorus:
e---------------------------
b---------------------------
g---------------------------
d-5--5-5-7--7-7-2--2-2-2--2-
a-5--5-5-7--7-7-2--2-2-2--2-
e-3--3-3-5--5-5-0--0-0-0--0-
 Yeah darlin'...

Chorus:
e------------
b------------
g-9---7--6-7-
d-9---7--7-7-
a-7----------
e------------
 Born...

Then just play that high e-chord during the organ solo and then it will
all start over.

Other versions of Born To Be Wild

Alternative guitar chords and tabs for Born To Be Wild by Steppenwolf

Find guitar tabs and chords

A B C D E F G H I J K L M N O P Q R S T U V W X Y Z #