Born To Be Wild by Steppenwolf

Born To Be Wild bass tab by Steppenwolf

Bass tabs

Born To Be Wild.btab
SteppenWolf
TablEdited by Poppamies
Tuning : E A D G 	Time Signature: 4/4

 tempo 144    |    |    |    |    |    |
|--------------------------------|--------------------------------|
|--------------------- two bars without bass ---------------------|
|--------------------------------|--------------------------------|
|--------------------------------|--------------------------------|

 |    |    |    |    |    |    |    |
|--------------------------------|--------------------------------|
|------------------------0---2---|2-------------------------------|
|--------------------0-0---------|--------------------------------|
|--------------------------------|--------------------------------|

 |    |    |    |    |    |    |    |
|--------------------------------|--------------------------------|
|------------------------0-------|2-------------------------------|
|--------------------0-0-----2---|--------------------------------|
|--------------------------------|--------------------------------|

 |    |    |    |    |    |    |    |
|--------------------------------|----------------------------7/9-|
|------------------------0-------|2-------------------------------|
|--------------------0-0-----2---|--------------------------------|
|--------------------------------|--------------------------------|

 |    |    |    |    Get your|motor running...
|----7-------9---7---------------|--------------------------------|
|--------9-------------------0---|2-----------2---2-------0---2---|
|--------------------------------|--------------------2-----------|
|------------------------7-------|--------------------------------|

 |    |    |    |    |    |    |    |
|----------------------------0---|--------------------------------|
|----2-------2---0-------0-------|2-----------2---2-------0---2---|
|--------------------2-----------|--------------------2-----------|
|--------------------------------|--------------------------------|

 |    |    |    |    |    |    |    |
|--------------------------------|--------------------------------|
|----2-------2---0---------------|2-----------2---2-2-----0---2---|
|--------------------2---0-------|--------------------2-----------|
|----------------------------3---|--------------------------------|

 |    |    |    |    |    |    |    |
|----------------------------0---|--------------------------------|
|----2-------2---2-2-----0-------|2-----------2---2-------0---2---|
|--------------------2-----------|--------------------2-----------|
|--------------------------------|--------------------------------|

 |    |    |    |    |    |    |    |
|--------------------------------|--------------------------------|
|----2-------2-2-0-0-------------|--------------------------------|
|--------------------2---0-------|--------------------------------|
|----------------------------0---|3---3-------3---5---5-------5---|

 Yeah, darling go|on... |    |    |    |    |
|--------9---9---7---------------|--------------------------------|
|----7h9-------------9-----------|--------------------------------|
|----------------------------0---|--------------------------------|
|0-----------------------0-------|3---3-------3---5---5-------5---|

 |    |    |    |    |    |    |    |
|--------9---9---7h--------------|--------------------------------|
|----7h9-------------9-----------|--------------------------------|
|----------------------------0---|--------------------------------|
|0-----------------------0-------|3---3-------3---5---5-------5---|

 |    |    |    |    |    |    |    |
|--------9---9---7---------------|--------------------------------|
|----7h9-------------9-----------|--------------------------------|
|----------------------------0---|--------------------------------|
|0-----------------------0-------|3---3-------3---5---5-------5---|

 |    |    |    |    I like smoke and|lightning...
|--------------------------------|--------------------------------|
|------------------------0-------|2---------------2-------0---2---|
|--------------------0-2-----2---|--------------------2-----------|
|0-------------------------------|--------------------------------|

 |    |    |    |    |    |    |    |
|----------------------------0---|--------------------------------|
|----2-------2---0-------0-------|2-----------2---0-------0---2---|
|--------------------2-----------|--------------------2-----------|
|--------------------------------|--------------------------------|

 |    |    |    |    |    |    |    |
|--------------------------------|--------------------------------|
|----2-------2---0---------------|----2-------2---2-------0---2---|
|--------------------2---0-------|--------------------2-----------|
|----------------------------3---|--------------------------------|

 |    |    |    |    |    |    |    |
|----------------------------0---|--------------------------------|
|----2-------2---0-------0-------|2-------2---2-----------0---2---|
|--------------------2-----------|--------------------2-----------|
|--------------------------------|--------------------------------|

 |    |    |    |    Yeah, darling go|on... |
|--------------------------------|--------------------------------|
|----2-------2---0---------------|--------------------------------|
|--------------------2---0-------|--------------------------------|
|----------------------------3---|3---3-------3---5---5-------5---|

 |    |    |    |    |    |    |    |
|--------9---9---7---------------|--------------------------------|
|----7h9-------------9-----------|--------------------------------|
|----------------------------0---|--------------------------------|
|0-----------------------0-------|3---3-------3---5---5-------5---|

 |    |    |    |    |    |    |    |
|--------9---9---7---------------|--------------------------------|
|----7h9-------------9-----------|--------------------------------|
|----------------------------0---|--------------------------------|
|0-----------------------0-------|3---3-------3---5---5-------5---|

 |    |    |    |    |    |    |    |
|--------9---9---7---------------|--------------------------------|
|----7h9-------------9-----------|--------------------------------|
|----------------------------0---|--------------------------------|
|0-----------------------0-------|3---3-------3---5---5-------5---|

 |    |    Like a |    true nature's child... |
|--------------------------------|--------------------------------|
|--------------------------------|--------------------------------|
|--------------------------------|--------------------------------|
|0-------0---0---0---0---0---0---|0---0---0---0---0---0---0---0---|

 |    |    |    |    |    |    |    |
|--------------------------------|--------------------------------|
|--------------------------------|--------------------------------|
|--------------------------------|--------------------------------|
|0---0---0---0---0---0---0---0---|3---3---3---3---3---3---3---3---|

 |    |    |    |    |    |    |    |
|--------------------------------|--------------------------------|
|--------------------------------|--------------------------------|
|--------------------------------|--------------------------------|
|3---3---3---3---3---3---3---3---|5---5---5---5---5---5---5---5---|

 |    |    |    |    |    |    |    |
|--------------------------------|--------------------------------|
|--------------------------------|--------------------------------|
|------------------------0-------|--------------------------------|
|3---3---3---3---3---3-------3---|0---0---0---0-------0---0---0---|

 |    |    |    |    Born to be   |    |
|--------------------------------|--------------------------------|
|----------------2-------2/--1---|2-------------------------------|
|--------------------------------|--------------------------------|
|0---0---0---0-------0-----------|--------------------------------|

 wild... |    |    |    |    |    |    |
|--------------------------------|--------------------------------|
|0-------------------------------|2-------------------------------|
|--------------------------------|--------------------------------|
|--------------------------------|--------------------------------|

 |    |    |    |    |    |    |    |
|--------------------------------|--------------------------------|
|0-------------------------------|2-------------------------------|
|--------------------------------|--------------------------------|
|--------------------------------|--------------------------------|

 |    |    |    |    |    |    |    |
|--------------------------------|--------------------------------|
|0-------------------------------|2-------------------------------|
|--------------------------------|--------------------------------|
|--------------------------------|--------------------------------|

 |    |    |    |    (S O L O)   |    |
|--------------------------------|--------------------------------|
|0-------------------------------|2-----------2---0-------0---2---|
|--------------------------------|--------------------2-----------|
|--------------------------------|--------------------------------|

 |    |    |    |    |    |    |    |
|----------------------------0---|--------------------------------|
|----2-------2---0-------0-------|2-----------2---0-------0---2---|
|--------------------2-----------|--------------------2-----------|
|--------------------------------|--------------------------------|


m/
http://www.geocities.com/jani_bjorklund/janis.html


Jan Bjorklund, Finland

Other versions of Born To Be Wild

Alternative guitar chords and tabs for Born To Be Wild by Steppenwolf

Find guitar tabs and chords

A B C D E F G H I J K L M N O P Q R S T U V W X Y Z #