Born To Be Wild  by Steppenwolf

Born To Be Wild bass tab by Steppenwolf (Ver. 2)

Bass tabs

Intro
G|------------|
D|------------|
A|----5-----7-|x3
E|-7-----7----|

G|------------------|
D|------------------|
A|-7-5-----7-5------|
E|------7-------7-5-|
Verse
G|--------------------------------|
D|--------------------------------|
A|-7--7-------5-7--7--7---5-----5-|x3
E|-------7-7-----------------7----|

G|-------------------|
D|-------------------|
A|-7--7-------5-7--7-|
E|-------7-7---------|
Prechorus 1
G|-----------------------------|
D|-----------------------------|
A|----------------5-7-5--------|x3
E|-3--3--5--5--0---------7-5-0-|

G|-------------------------|
D|-------------------------|
A|----------------5-7-5--7-|
E|-3--3--5--5--0-----------|

Verse

Prechorus 2
G|-----------------------------|
D|-----------------------------|
A|----------------5-7-5--------|x3
E|-3--3--5--5--0---------7-5-0-|

G|---------------|
D|---------------|
A|---------------|
E|-3--3--5--5--0-|

G|------------------------------------------------------------------|
D|------------------------------------------------------------------|
A|------------------------------------------------------------------|
E|-000000000000000000000000--3333333333333333--55555555--33333333-0-|

Pause

Chorus
G|--------|
D|--------|
A|-7----5-|x4
E|--------|

G|-------|
D|-------|
A|-5-7-5-|
E|-------|

Verse

G|-------------------|
D|-------------------|
A|-7-7-7-7-7-------5-|x3
E|------------5-7----|

G|-----------------7-|
D|------------7-9----|
A|-7-7-7-7-7---------|
E|-------------------|

G|-9-9-9-9-9------7-|
D|------------7-9---|
A|------------------|x4
E|------------------|

G|-9-9-9-9-9-9-9-9-|
D|-----------------|
A|-----------------|x3
E|-----------------|

Pause

Verse

Prechorus 2

Pause

Chorus
G|--------|
D|--------|
A|--------|x4
E|-7----5-|

G|-------|
D|-------|
A|-5-7-5-|
E|-------|

Prechorus 1

Verse/Outro x7

End
G|---|
D|---|
A|---|
E|-7-|

Other versions of Born To Be Wild

Alternative guitar chords and tabs for Born To Be Wild by Steppenwolf

Find guitar tabs and chords

A B C D E F G H I J K L M N O P Q R S T U V W X Y Z #