Search tabs and chords

Search for song, artist or band

Log in

One click and you are in

Login with Facebook Login with Google

Why sign up and log in

Guitar Tabs Explorer
Hailee Steinfeld guitar tabs for Starving

Guitar tabs

[Verse/Intro]

   E chord diagramEE     F#m chord diagramF#mF#m         C#m chord diagramC#mC#m   B chord diagramBB
e|-----x-------x---|-----x-------x---|
B|-----x-------x---|---5-x-4-----x---|
G|---1-x-2-----x---|-----x-------x---|
D|-----x-------x---|-----x-------x---|
A|-----x-------x---|-4---x-2-----x---|
E|-0---x-2-----x---|-----x-------x---|
   1 + 2 + 3 + 4 +   1 + 2 + 3 + 4 +

   E chord diagramEE     F#m chord diagramF#mF#m         C#m chord diagramC#mC#m   B chord diagramBB
e|-----x-------x---|-----x-2-----x---|
B|-----x-------x---|---5-x-------x---|
G|---1-x-2-----x---|-----x-------x---|
D|-----x-------x---|-----x-------x---|
A|-----x-------x---|-4---x-2-----x---|
E|-0---x-2-----x---|-----x-------x---|
   1 + 2 + 3 + 4 +   1 + 2 + 3 + 4 +


[Pre-Chorus]

   E chord diagramEE/G# chord diagramG#G#  A chord diagramAA           C#m chord diagramC#mC#m   B chord diagramBB
e|-----x-------x---|-----x-------x---|
B|-----x-------x---|---5-x-4-----x---|
G|---4-x-6-----x---|---6-x-4-----x---|
D|---6-x-------x---|-----x-------x---|
A|-----x-------x---|-4---x-2-----x---|
E|-4---x-5-----x---|-----x-------x---|
   1 + 2 + 3 + 4 +   1 + 2 + 3 + 4 +


[Chorus]

   E chord diagramEE     F#m chord diagramF#mF#m         C#m chord diagramC#mC#m   B chord diagramBB
e|-----x-------x---|-----x-------x---|
B|-----x-------x---|---5-x-4-----x---|
G|---1-x-2-----x---|-----x-------x---|
D|-----x-------x---|-----x-------x---|
A|-----x-------x---|-4---x-2-----x---|
E|-0---x-2-----x---|-----x-------x---|
   1 + 2 + 3 + 4 +   1 + 2 + 3 + 4 +

Other versions of Starving

StarvingChords
Starving (Ver. 2)Chords
Starving (Ver. 3)Chords
Starving (Ver. 4)Chords
Starving (Ver. 2)Tabs
Starving - introTabs
Starving acousticTabs

Almost there ...

Sign in to get your own page with links to favourite songs and more. You are just one click away...

Login with Facebook Login with Google