Log in

One click and you are in

Login with Facebook Login with Google

Why sign up and log in

Guitar Tabs Explorer
Hailee Steinfeld guitar tabs for Starving acoustic

Guitar tabs with lyrics

This tab is based off of the following acoustic version:
https://www.youtube.com/watch v=f1knjN8U1mA


e|----------------------------------------------------2---------|
b|------------------5----4------------------------5-------------|
g|------1---2------------------------1---2----------------------|
d|------2-----------6----------------2------------6-------------|  (Verse)
a|---------------4-------2---------------------4------2---------|
E|---0------2--------------------0-------2----------------------|
Verse 1:
You know just what to say, things that scare me
I should just walk away, but I can't move my feet
The more that I know you, the more that I want to
Something inside me's changed

e|------------------------------|
b|------0---2---------5----4----|
g|------------------------------|
d|------2-------------6---------|  (Interlude *stars on Yesterday!)
a|----------0-----4--------2----|
E|---4--------------------------|

Interlude:
I was so much younger yesterday

e|------------------------------|
b|------------------5----4------|
g|------1---2-------------------|
d|------2-----------6-----------|  (Chorus)
a|---------------4-------2------|
E|---0------2-------------------|

Chorus:
I didn't know that I was starving till I tasted you
Don't need no butterflies when you give me the whole damn zoo
By the way, right away, you do things to my body
I didn't know that I was starving till I tasted you

     A chord diagramE MajorE   A chord diagramF# minorF#m  A chord diagramC# minorC#m   A chord diagramBB
e|---0----2----4----x-----------|
b|---0----2----5----4-----------|
g|---1----2----6----4-----------|
d|---2----4----6----4-----------|  (Breakdown)
a|---2----4----4----2-----------|
E|---0----2----x----x-----------|

Breakdown:
I didn't, I didn't, I did, I did, I tasted you
Don't need no, Don't need no, Don't need, Don't need the whole damn zoo
By the way, right away, you do things to my body
I didn't know that I was starving until I tasted you


Verse 2:
You know just how to make my heart beat faster
Emotional earthquake, bring on disaster
You hit me head on, got me weak in my knees
Yeah, something inside me's changed
I was so much younger yesterday
So much younger yesterday


Chorus:
I didn't know that I was starving till I tasted you
Don't need no butterflies when you give me the whole damn zoo
By the way, right away, you do things to my body
I didn't know that I was starving till I tasted you

Breakdown:
I didn't, I didn't, I did, I did, I tasted you
Don't need no, Don't need no, Don't need, Dont need the whole damn zoo
By the way, right away, you do things to my body
I didn't know that I was starving until I tasted you

e|---------------4---------------|
b|---------------4h5--4----------|
g|------1---2----4h6--4----------|
d|------2--------4h6--4----------|  (Variation played during outro)
a|---------------4----2----------|
E|---0------2--------------------|

e|-0h2-2--0h2-2--0h2-2--2s4--2-0----------|
b|--------------------------------2p0-----|
g|----------------------------------------|
d|----------------------------------------|  (Played during chords, if you have two guitar players)
a|----------------------------------------|
E|----------------------------------------|


Outro:
The more that I know you, the more that I want to
Something inside me's changed
I was so much younger yesterday

********************************
p = pull-off
h = hammer-on
s = slide

Other versions of Starving Acoustic

StarvingChords
Starving (Ver. 2)Chords
Starving (Ver. 3)Chords
Starving (Ver. 4)Chords
Starving ukuleleChords
Starving ukulele (Ver. 2)Chords
StarvingTabs
Starving (Ver. 2)Tabs
Starving - introTabs

Almost there ...

Sign in to get your own page with links to favourite songs and more. You are just one click away...

Login with Facebook Login with Google