Log in

One click and you are in

Login with Facebook Login with Google

Why sign up and log in

Guitar Tabs Explorer
Hailee Steinfeld guitar tabs for Most girls

Guitar tabs

  • Capo on 2nd
Tuning: Standard (E A D G B E)

Key: A chord diagramF# minorF#m

Difficulty: Advanced

Most Girls - Acoustic by Hailee Steinfeld"

Key: A chord diagramF#F# minor
Verse 1:
        A chord diagramE minorEm             A chord diagramA minorAm               A chord diagramG MajorG             A chord diagramA minorAm
E|---------------------------------|----------------------------|
B|-----0--X------------------------|----------------------------|
G|-----0--X-----0h2-----X-----2p0--|----2p0--2---2p0--2/4-------|
D|-----2--X-----0h2-----X-----2p0--|---------0--------2----5\2--|
A|-------------------0-----0-------|------------------0---------|
E|--0--------0---------------------|--3------3------------------|
        A chord diagramE minorEm             A chord diagramA minorAm               A chord diagramG MajorG             A chord diagramA minorAm
E|---------------------------------|----------------------------|
B|-----0--X------------------------|------0--------------0------|
G|-----0--X-----0h2-----X-----2p0--|--0h2----0----2----2---0----|
D|-----2--X-----0h2-----X-----2p0--|-----------2-----2-------2--|
A|-------------------0-----0-------|--------------0-------------|
E|--0--------0---------------------|--3-------------------------|
        A chord diagramE minorEm             A chord diagramA minorAm               A chord diagramG MajorG             A chord diagramA minorAm
E|---------------------------------|-------------------------|
B|-----0--X------------------------|-3--3--0-----------------|
G|-----0--X-----0h2-----X-----2p0--|-0--------2p0--2/4--0--0-|
D|-----2--X-----0h2-----X-----2p0--|-0-------------2---------|
A|-------------------0-----0-------|---------------0---------|
E|--0--------0---------------------|-3-----3-----------------|
        A chord diagramE minorEm             A chord diagramA minorAm              A chord diagramG MajorG              A chord diagramA minorAm
E|------------------------------------------|
B|--3/5(5)\3p0--3-------------0-------------|
G|-----------------2p0--2--2-----0----------|
D|----------------------------------0--0h2--|
A|----------------------0-------------------|
E|--0-----------3----------------3-----0----|

Pre-Chorus:
        A chord diagramE minorEm            A chord diagramC majorC     A chord diagramG MajorG               A chord diagramD MajorD
E|----------3/5--------------------------|
B|-------3------/7\5p3----0--0---0--3p0--|
G|--2/4------------------------2----2p0--|
D|---------------0-----------------------|
A|---------------------------------------|
E|----------0-------------3------3-------|

            A chord diagramE minorEm       A chord diagramC majorC      A chord diagramG MajorG                A chord diagramD MajorD
E|----------3/5---------------------------|
B|-------3-------8\7--5\3--0--0---0-------|
G|--2/4-------------------------2----4\2--|
D|---------------0-------------------0----|
A|----------------------------------------|
E|----------0--------------3--------------|

            A chord diagramE minorEm       A chord diagramC majorC              A chord diagramG MajorG               A chord diagramD MajorD
E|----------3/5--------------------------|
B|-------3------/7\5p3----0--0---0--3p0--|
G|--2/4------------------------2----2p0--|
D|---------------0-----------------------|
A|---------------------------------------|
E|----------0-------------3------3-------|

           A chord diagramE minorEm          A chord diagramC majorC             A chord diagramG MajorG            A chord diagramD MajorD
E|-------------------------------------------------|
B|------3--3/5(5)\3p0--3-------------0-------------|
G|--2/4-------------------2p0--2--2-----0----------|
D|-----------------------------------------0--0h2--|
A|-----------------------------0-------------------|
E|---------0-----------3----------------3-----0----|


Chorus:
    A chord diagramE minorEm       A chord diagramCadd9Cadd9              A chord diagramG MajorG               A chord diagramD MajorD
E|-----3------------------|---------------------------|
B|-----3--X--3---------3--|----3---3--3---3/5---------|
G|-----0--X--0------0-----|---------------2----4\2p0--|
D|--------X--2---2--------|--------0------0----0------|
A|-----------3------------|---------------------------|
E|--0---------------------|--3------------2-----------|x2

    A chord diagramE minorEm       A chord diagramCadd9Cadd9              A chord diagramG MajorG               A chord diagramD MajorD
E|-----3-------------|----------------3--|
B|-----3--X--3/5---0-|-0--0--0--1--3--0--|
G|-----0--X--0-----0-|-0--0--0--0--0-----|
D|--------X--2-------|----------------0--|
A|-----------3-------|----------0--2-----|
E|--0--------------3-|-------3-----------|

    A chord diagramE minorEm       A chord diagramCadd9Cadd9             A chord diagramG MajorG                A chord diagramD MajorD
E|--------------3--|-------------------------------------|
B|--0--0--1--3--0--|----------0----------------0---------|
G|--0--0--0--0-----|--2/4--4-----4\p0--2/4--4-----4/2p0--|
D|--------------0--|--0----------------0-----------------|
A|--------0--2-----|-------------------------------------|
E|--3--------------|-------------------------------------|


Chorus Outro:             “I wanna be like, I wanna be like”
    A chord diagramE minorEm       A chord diagramCadd9Cadd9             A chord diagramG MajorG                A chord diagramD MajorD
E|-----3--------------|-------------------------------------|
B|-----0--X--3------3-|----------0----------------0---------|
G|-----0--X--0----0---|--2/4--4-----4\p0--2/4--4-----4/2p0--|
D|--------X--2--2-----|--0----------------0-----------------|
A|-----------3--------|-------------------------------------|
E|--0-----------------|-------------------------------------|

    A chord diagramE minorEm       A chord diagramCadd9Cadd9             A chord diagramG MajorG                A chord diagramD MajorD
E|-----3--------------|---------------------------------------|
B|-----0--X--3------3-|----------0----------------0--3p0------|
G|-----0--X--0----0---|--2/4--4-----4\p0--2/4--4----------2p0-|
D|--------X--2--2-----|--0----------------0----------0--------|
A|-----------3--------|---------------------------------------|
E|--0-----------------|---------------------------------------|x3


Verse 2:
        A chord diagramE minorEm             A chord diagramA minorAm               A chord diagramG MajorG             A chord diagramA minorAm
E|---------------------------------|------------------------|
B|-----0--X------------------------|----*-*-*-*-------------|
G|-----0--X-----0h2-----X-----2p0--|----2-2-2-2--2/4--0-----|
D|-----2--X-----0h2-----X-----2p0--|----0-0-0-0--0-------2--|
A|-------------------0-----0-------|------------------------|
E|--0--------0---------------------|--3---------------------|

        A chord diagramE minorEm             A chord diagramA minorAm               A chord diagramG MajorG             A chord diagramA minorAm
E|---------------------------------|------------------------|
B|-----0--X------------------------|-----0----------0-------|
G|-----0--X-----0h2-----X-----2p0--|--0----2------0---2-----|
D|-----2--X-----0h2-----X-----2p0--|--0------2-2--0------2--|
A|-------------------0-----0-------|------------------------|
E|--0--------0---------------------|--3-----------3---------|

E|--------------------|---------------3--3-3-------|
B|----------0h1p0--3--|-/8--8-8--5\3--3-------5p3--|
G|--------0--------0--|--0-------0----0------------|
D|------2----------2--|----------------------------|
A|----2---------------|----------------------------|
E|--0-----------------|----------------------------|

E|--0---------------------------------|
B|-----3p0--3-------------------------|
G|-------------2p0--2--2/4--0---------|
D|----------0-----------------0-------|
A|------------------0------------5/7--|
E|--0-----------------------3----0----|

Back to Pre-Chorus

Then to Chorus

Then to Chorus outro

Then the beat stops and cool vocal part happens:

Then at 2:39 for Vocal Outro

E|-----3--------|---------------------------|
B|-----3--X--3--|-/8-7--5h7p5--(5)\3---3/5--|
G|-----0--X--0--|--------------------4------|
D|--------X--2--|---------------------------|
A|-----------3--|---------------------------|
E|--0-----------|---------------------------|
                                               "heh"
E|-----3--------|--------------------------|  |-----|
B|-----3--X--3--|-/8-8-8p7--7-7-7p5--5-5-5-|  |-----|
G|-----0--X--0--|--------------------------|  |--x--|
D|--------X--2--|--------------------------|  |--x--|
A|-----------3--|--------------------------|  |--x--|
E|--0-----------|--------------------------|  |-----|

    A chord diagramE minorEm       A chord diagramCadd9Cadd9        A chord diagramG MajorG        A chord diagramD MajorD
E|-----3----------|----------------3--|--------------3--|
B|-----3--X--3--0-|-0--0--0--1--3--0--|--0--0--1--3--0--|
G|-----0--X--0--0-|-0--0--0--0--0-----|--0--0--0--0-----|
D|--------X--2----|----------------0--|--------------0--|
A|-----------3----|----------0--2-----|--------0--2-----|
E|--0-----------3-|-------3-----------|--3--------------|

E|-------------------------------------|
B|----------0----------------0---------|
G|--2/4--4-----4\p0--2/4--4-----4/2p0--|
D|--0----------------0-----------------|
A|-------------------------------------|
E|-------------------------------------|

    A chord diagramE minorEm       A chord diagramCadd9Cadd9             A chord diagramG MajorG                A chord diagramD MajorD
E|-----3--------------|-------------------------------------|
B|-----0--X--3------3-|----------0----------------0---------|
G|-----0--X--0----0---|--2/4--4-----4\p0--2/4--4-----4/2p0--|
D|--------X--2--2-----|--0----------------0-----------------|
A|-----------3--------|-------------------------------------|
E|--0-----------------|-------------------------------------|

    A chord diagramE minorEm       A chord diagramCadd9Cadd9             A chord diagramG MajorG                A chord diagramD MajorD
E|-----3--------------|---------------------------------------|
B|-----0--X--3------3-|----------0----------------0--3p0------|
G|-----0--X--0----0---|--2/4--4-----4\p0--2/4--4----------2p0-|
D|--------X--2--2-----|--0----------------0----------0--------|
A|-----------3--------|---------------------------------------|
E|--0-----------------|---------------------------------------|x2

The End!

************************************

| h  Hammer-on
| p  Pull-off
| /  Slide up
| \  Slide down
| *  Natural harmonic
| x  Dead note

************************************

Other versions of Most Girls

Most girlsChords
Most girls (Ver. 2)Chords
Most girls (Ver. 3)Chords

Almost there ...

Sign in to get your own page with links to favourite songs and more. You are just one click away...

Login with Facebook Login with Google