Log in

One click and you are in

Login with Facebook Login with Google

Why sign up and log in

Guitar Tabs Explorer
Hailee Steinfeld guitar tabs for Let me go (Ver. 2)

Guitar tabs

Tuning: Standard (E A D G B E)

Repeat pretty much the entire song.


1st

e|---------------------------------------------------------------------------|
B|---------------------------------------------------------------------------|
G|----6-------5--------------------------------------------------------------|
D|-------------------5-------6-----------------------------------------------|
A|-----------------6---6-6/8---8---------------------------------------------|
E|4/6---6-6\4---4------------------------------------------------------------|

2nd

e|---------------------------------------------------------------------------|
B|---------------------------------------------------------------------------|
G|---------5-----------------------------------------------------------------|
D|--6-------------5-------6--------------------------------------------------|
A|4---4---------6---6-6/8---8------------------------------------------------|
E|-------4---4---------------------------------------------------------------|


Play the 1st part twice and then play the 2nd part once, then go back to 1st part
and play it once again. That's the full chord progression in this song.



************************************

| /  Slide up
| \  Slide down

************************************

Other versions of Let Me Go

Let me goChords
Let me go (Ver. 2)Chords
Let me go (Ver. 3)Chords
Let me go - introTabs

↓ Add and view comments below ↓

What do you think about this song and these tabs?

Add your comments, questions, rant or a thumbs up below.

Almost there ...

Sign in to get your own page with links to favourite songs and more. You are just one click away...

Login with Facebook Login with Google