Log in

One click and you are in

Login with Facebook Login with Google

Why sign up and log in

Guitar Tabs Explorer
Steely Dan bass tabs for Turn that heartbeat over again

Turn That Heartbeat Over Again bass tab by Steely Dan

Steely Dan bass tabs for Turn that heartbeat over again

Bass tabs

BASS TAB!


Intro

|-----------------|-----------------|
|-----------------|-----------------|
|-----------------|-5---------------|
|-5---5---5---5---|-----------------|
 Q  Q  Q  Q   W
Verse 1

|-------7-7---------|-------7---------|-----------------|-----------------|
|-------------7-x-7-|-----------7-7---|-----------------|-----------------|
|-5-----------------|-5-------------5-|-5-----3---------|-----------------|
|-------------------|-----------------|-----------------|-5-----3---------|
 Q.  E Q  E S S  Q.  E E.S E E  Q.  E H     Q.  E H

 2/4    4/4
|---------|-----------------|-----------------|-----------------|
|---------|-----------------|-2-----2---2---2-|-----------------|
|---------|-2-----2---2-4-5-|-------------2---|-------3-------2-|
|(3)------|-----------------|-----------------|-5---------------|
 H     Q.  Q  E E E  Q.  Q  E E E  Q.  H    E

|-----------------|-----------------|-----------6-----|
|-----------------|-----------6-----|-------6-----6---|
|-1---------------|-------6---------|-4-------------4-|
|-------4---------|-4-------------4-|-----------------|
 Q.  E H     Q.  Q  Q  E  Q.  Q  E.S E


Pre-Chorus 1

|-----------------|-----------6-------|-----------------|-----------6-----|
|-----------6-----|-------6-----6-----|-----------6---6-|-------6-----6---|
|-------6---------|-4-------------4-6-|-------6---------|-4-------------4-|
|-4-------------4-|-------------------|-4-----------4---|-----------------|
 Q.  Q  Q  E  Q.  Q  S S E E  Q.  Q  E E E  Q.  Q  E E E

|-----------------|-----------6-----|-----------------|-----------------|
|-----------6---6-|-------6-----6---|-----------------|-----------------|
|-------6-----6---|-4-------------4-|---------2-----2-|-4---------------|
|-4---------------|-----------------|-4-----4---------|-----------------|
 Q.  Q  E E E  Q.  Q  E E E  Q.  E Q.  E  W

Chorus 1

|-----------------|-----------------|-----------------|-----------------|
|-------------3-4-|-6-----6---6-4-3-|-------------3-4-|-6-----6---6-4-3-|
|-6-----6---6-----|-----------------|-6-----6---6-----|-----------------|
|-----------------|-----------------|-----------------|-----------------|
 Q.  Q  E E E  Q.  Q  E E E  Q.  Q  E E E  Q.  Q  E E E

|-----------------|-----------------|-----------------|-----------------|
|-------------3-4-|-6-----6---6-4-3-|-------------3-4-|-6---6-6-------3-|
|-6-----6---6-----|-----------------|-6-----6---6-----|---------4-4-6---|
|-----------------|-----------------|-----------------|-----------------|
 Q.  Q  E E E  Q.  Q  E E E  Q.  Q  E E E  Q. S S E E E E

|-----------------|-----------------|-----------------|-----------------|
|-4-----4---4---4-|-3-----3---3---3-|-1-----1---1-----|---------3---1---|
|-------------4---|-------------3---|-------------1-2-|-3-----3---------|
|-----------------|-----------------|-----------------|-----------------|
 Q.  Q  E E E  Q.  Q  E E E  Q.  Q  E E E  Q.  E Q  Q

|-----------------|-----------------|-----------------|-----------------|
|---------3-------|-4---------------|-----------------|-----------------|
|-4---------------|---------2---2-4-|(4)------2---2-4-|(4)--------------|
|-----------------|-----------2-----|-----------2-----|-----------------|
 H    H     H    E E E E  H    E E E E  W

|-----------------|-----------------|
|-----4-----2-----|-----------------|
|-4-----2-----0---|(0)--------------|
|-----------------|-----------------|
 Q  E Q  E Q   W


Verse 2

|-------7-7---------|-------7---------|-----------------|-----------------|
|-----------x-7-7---|-----------7-7---|-----------------|-----------------|
|-5---------------5-|-5-------------5-|-5-----3---x-----|-----------------|
|-------------------|-----------------|-------------0-3-|-5-----3---------|
 Q.  E E.S E S S  Q.  E E.S E E  Q.  E E.S E E  Q.  E H

 2/4    4/4
|---------|-----------------|-----------------|-----------------|
|---------|-----------------|-2-----2---2---2-|-----------------|
|---------|-2-----2---2-4-5-|-------------2---|-------3---------|
|(3)------|-----------------|-----------------|-5---------------|
 H     Q.  Q  E E E  Q.  Q  E E E  Q.  H    E

|-----------------|-----------------|-----------6-----|
|-----------------|-----------6-----|-------6-----6---|
|-1---------------|-------6---------|-4-------------4-|
|-------4---------|-4-------------4-|-----------------|
 Q.  E H     Q.  Q  Q  E  Q.  Q  E.S E


Pre-Chorus 2

|-----------------|-----------6-------|-----------------|-----------6-----|
|-----------6---6-|-------6-----6-----|-----------6---6-|-------6-----6---|
|-------6---------|-4-------------4-6-|-------6---------|-4-------------4-|
|-4-----------4---|-------------------|-4-----------4---|-----------------|
 Q.  Q  E E E  Q.  Q  S S E E  Q.  Q  E E E  Q.  Q  E E E

|-----------------|-----------6-----|-----------------|-----------------|
|-----------6-----|-------6-----6---|-----------------|-----------------|
|-------6---------|-4-------------4-|---------2-----2-|-4---------------|
|-4-------------4-|-----------------|-4-----4---------|-----------------|
 Q.  Q  Q  E  Q.  Q  E E E  Q.  E Q.  E  W


Chorus 2

|-----------------|-----------------|-----------------|-----------------|
|-------------3-4-|-6-----6---6-4-3-|-------------3-4-|-6-----6---6-4-3-|
|-6-----6---6-----|-----------------|-6-----6---6-----|-----------------|
|-----------------|-----------------|-----------------|-----------------|
 Q.  Q  E E E  Q.  Q  E E E  Q.  Q  E E E  Q.  Q  E E E

|-----------------|-----------------|-----------------|-----------------|
|-------------3-4-|-6-----6---6-4-3-|-------------3-4-|-6---6-6-------3-|
|-6-----6---6-----|-----------------|-6-----6---6-----|---------4-4-6---|
|-----------------|-----------------|-----------------|-----------------|
 Q.  Q  E E E  Q.  Q  E E E  Q.  Q  E E E  Q. S S E E E E

|-----------------|-----------------|-----------------|-----------------|
|-4-----4---4---4-|-3-----3---3---3-|-1-----1---1-----|---------3---1---|
|-------------4---|-------------3---|-------------1-2-|-3-----3---------|
|-----------------|-----------------|-----------------|-----------------|
 Q.  Q  E E E  Q.  Q  E E E  Q.  Q  E E E  Q.  E Q  Q

|-----------------|-----------------|-----------------|-----------------|
|---------3-------|-4---------------|-----------------|-----------------|
|-4---------------|---------2---2-4-|(4)------2---2-4-|(4)--------------|
|-----------------|-----------2-----|-----------2-----|-----------------|
 H    H     H    E E E E  H    E E E E  W


Solo
                            2/4
|-----------------|-----------------|-----------------|---------|
|-1-----1---------|-1-----1---------|-1-----1---------|---------|
|---------1-----1-|---------1-----1-|---------1-----1-|-4-4---4-|
|-----------------|-----------------|-----------------|-----4---|
 Q.  E Q.  E  Q.  E Q.  E  Q.  E Q.  E  E.S E E

|-----------------|-----------------|-----------------|-----------------|
|-----------------|-----------------|-----------------|-----------------|
|-2-----2---------|-2-----2---------|-1-----1---------|-1-----1-----1---|
|---------2-----2-|---------2-----2-|---------1-----1-|---------1-----1-|
 Q.  E Q.  E  Q.  E Q.  E  Q.  E Q.  E  Q.  E Q  E E

|-----------------|-----------------|-----------------|-----------------|
|-----------------|-----------------|-----------------|-----------------|
|-----------------|-----------------|-----------------|-----------------|
|-4-----4-4-----4-|-6-----6-6-----6-|-4-----4-4-----4-|-6-----6-6-----2-|
 Q.  E Q.  E  Q.  E Q.  E  Q.  E Q.  E  Q.  E Q.  E

|-----------------|-----------------|-----------------|-----------------|
|-----------------|-----------------|-----------------|-----------------|
|-------------2---|-----------------|-----------------|-----------------|
|-3---3-3-3-5---3-|-5---5-x-5-5-0-5-|-3---3-3-3-3-0-3-|-1-----1-0-----0-|
 E E E.S E E E E  Q  E.S E E E E  E E E.S E E E E  Q.  E Q.  E

|-------8-8-----8-|-------10-10------10-|-----------------|-----------------|
|-----------x-8---|-------------x-10----|-----------------|-----------------|
|-6---------------|-8-------------------|-3-----3-1-----1-|-3-----3-1-----1-|
|-----------------|---------------------|-----------------|-----------------|
 Q.  E E.S E E  Q.  E E. S E E  Q.  E Q.  E  Q.  E Q.  E

|-----------------|-----------------|-----------------|-----------------|
|-1-----1---------|-3-----3-3-3-1---|---------3-----3-|-----------------|
|---------4-----4-|---------------4-|-3-----3---------|-1---------------|
|-----------------|-----------------|-----------------|---------4-------|
 Q.  E Q.  E  Q.  E E E E E  Q.  E Q.  E  H    H

|-----------------|-----------------|-----------------|-----------------|
|-----------------|-----------------|---------3-------|-4---------------|
|-----------------|-----------------|-4---------------|-----2---4-------|
|-2-----2-2---2---|-1---------------|-----------------|-----------------|
 Q.  E Q  Q   W         H    H     Q  Q  H

 2/4    4/4
|---------|-----------------|-----------------|
|---------|-----4-----2-----|-----------------|
|(4)------|-4-----2-----0---|(0)--------------|
|---------|-----------------|-----------------|
 H     Q  E Q  E Q   W


Verse 3

|-------7-7---------|-------7---------|-----------------|-----------------|
|-----------x-7-7---|-----------7-7---|-----------------|-----------------|
|-5---------------5-|-5-------------5-|-5-----3---x-----|-----------------|
|-------------------|-----------------|-------------0-3-|-5-----3---------|
 Q.  E E.S E S S  Q.  E E.S E E  Q.  E E.S E E  Q.  E H

 2/4    4/4
|---------|-----------------|-----------------|-----------------|
|---------|-----------------|-2-----2---2---2-|-----------------|
|---------|-2-----2---2-4-5-|-------------2---|-------3-------3-|
|(3)------|-----------------|-----------------|-5-----------3---|
 H     Q.  Q  E E E  Q.  Q  E E E  Q.  Q.  E E

|-----------------|-----------------|-----------6-------|
|-----------------|-----------6---6-|-------6-----6-----|
|-1---------------|-------6---------|-4-------------4-6-|
|-------4-------4-|-4-----------4---|-------------------|
 Q.  E Q.  E  Q.  Q  E E E  Q.  Q  S S E E


Pre-Chorus 3

|-----------------|---------6-6-----|-----------------|---------6-------|
|---------6-6---6-|-------6---------|---------6-6---6-|-------6---6-----|
|-------6---------|-4-----------4-6-|-------6---------|-4-----------4-6-|
|-4-----------4---|-----------------|-4-----------4---|-----------------|
 Q.  E E E E E  Q.  E E E E E  Q.  E E E E E  Q.  E.S E E E


|-----------------|-----------6-----|-----------------|-----------------|
|-----------6-----|-------6-----6---|-----------------|-----------------|
|-------6---------|-4-------------4-|---------2-----2-|-4---------------|
|-4-------------4-|-----------------|-4-----4---------|-----------------|
 Q.  Q  Q  E  Q.  Q  E.S E  Q.  E Q.  E  W


Chorus 3

|-----------------|-----------------|-----------------|-----------------|
|-------------3-4-|-6-----6---6-4-3-|-------------3-4-|-6-----6---6-4-3-|
|-6-----6---6-----|-----------------|-6-----6---6-----|-----------------|
|-----------------|-----------------|-----------------|-----------------|
 Q.  Q  E E E  Q.  Q  E E E  Q.  Q  E E E  Q.  Q  E E E

|-----------------|-----------------|-----------------|-----------------|
|-------------3-4-|-6-----6---6-4-3-|-------------3-4-|-6-----6---------|
|-6-----6---6-----|-----------------|-6-----6---6-----|---------4-----4-|
|-----------------|-----------------|-----------------|-----------------|
 Q.  Q  E E E  Q.  Q  E E E  Q.  Q  E E E  Q.  E Q.  E

|-----------------|-----------------|-----------------|-----------------|
|-4-----4---4---4-|-3-----3---3---3-|-1-----1---1-----|---------3-----1-|
|-------------4---|-------------3---|-------------1-2-|-3-----3---------|
|-----------------|-----------------|-----------------|-----------------|
 Q.  E E.S E E  Q.  Q  E E E  Q.  Q  E E E  Q.  E Q.  E

|-----------------|-----------------|-----------------|-----------------|
|---------3-------|-4---------------|-----------------|-----------------|
|-4---------------|---------2---2-0-|(0)--------------|---------2-2-2-0-|
|-----------------|-----------2-----|---------5-5-2-3-|-4---------------|
 H    H     H    E E E E  H    E E E E  H    E E E E

|-----------------|-----------------||
|-----------------|-----------------||
|(0)--------------|-----------------||
|---------5-5-2-3-|-4---------------||
 H    E E E E  W


Key to rhythm notations:

W - Whole Note/Semi-Brieve
H - Half Note/Minim
Q - Quarter Note/Crotchet    Q. - Dotted Quarter Note
E - Eight Note/Quaver      E. - Dotted Eight Note
S - Sixteenth Note/Semi-Quaver S. - Dotted Sixteenth Note
ⓘ Bass guitar tab for 'Turn That Heartbeat Over Again' by Steely Dan, a rock band formed in 1972 from Annandale-on-Hudson, USA. Steely Dan is known for their good natured rock/pop music.

Almost there ...

Sign in to get your own page with links to favourite songs and more. You are just one click away...

Login with Facebook Login with Google