Log in

One click and you are in

Login with Facebook Login with Google

Why sign up and log in

Guitar Tabs Explorer
Steely Dan bass tabs for Razor boy

Bass tabs

Note: recorded version is 15 cents sharp - tune up to be in tune with
the record.


Verse 1

|-----------------|-----------------|-----------------|-----------------|
|-4---------------|-4---------------|-----------------|-2-----2-2-------|
|-----------------|---------5-------|-----------------|-----------------|
|-----------------|-----------------|-5-----5-5-------|-----------------|
 W         H    H     Q.  E H     Q.  E H

|-----------------|-----------------|-----------------|-----------------|
|-4-----4-4-------|-4-----4---------|-----------------|-2-----2-2-4---5-|
|---------------4-|---------5-----7-|-----------------|-----------------|
|-----------------|-----------------|-5-----5-5-------|-----------------|
 Q.  E Q.  E  Q.  E Q.  E  Q.  E H     Q.  E E Q  E

|-----------------|-----------------|-----------------|-----------------|
|(5)----5-5-----2-|-----------------|-----------------|-7-7---5---------|
|-----------------|---------------7-|-5-----5-5-----7-|---------------5-|
|-----------------|-5-----5-5-------|-----------------|-----------------|
 Q.  E Q.  E  Q.  E Q.  E  Q.  E Q.  E  E Q  E Q.  E

|-----------------|-----------------|-----------------|-----------------|
|-5-------5-------|---------------7-|-----------------|-7-7---5---------|
|-------5-------7-|-----------------|-5-----5-5-----7-|-----------------|
|-----------------|-5-----5-5-------|-----------------|-----------------|
 Q.  E Q.  E  Q.  E Q.  E  Q.  E Q.  E  E Q  E H


Bridge 1

|-----------------|-----------------|-----------------|-----------------|
|---------------3-|-5-------5-----7-|---------------5-|(5)----3---------|
|-5-------5-------|-------5---------|-5-------5-------|-----------3-----|
|-------5---------|-----------------|-------5---------|-------------1---|
 Q.  E Q.  E  Q.  E Q.  E  Q.  E Q.  E  Q.  Q  E Q

Chorus 1

|-2-----------2-3-|-----------------|-----------------|-----------------|
|---------2-------|-----------------|-5-----5-5-----5-|-5-----5-5-----5-|
|-----------------|-2-----2-2-------|-----------------|-----------------|
|-----------------|-----------------|-----------------|-----------------|
 H    Q  E E  Q.  E H     Q.  E Q.  E  Q.  E Q.  E

|-----------------|-----------------|-----------------|-----------------|
|-----------------|-----------------|-----------------|-----------------|
|-----------------|-----------------|-4-----4-4-----4-|-5-----5---------|
|-2-----2-2-0---2-|(2)----2-2-------|-----------------|---------5-----7-|
 Q.  E E Q  E  Q.  E H     Q.  E Q.  E  Q.  E Q.  E

|-----------------|-----------------|
|-----------------|-----------------|
|-7-----7-7-5---7-|(7)----2---------|
|-----------------|---------0-------|
 Q.  E E Q  E  Q.  E H


Verse 2

|-----------------|-----------------|-----------------|-----------------|
|-4-----4-4-----4-|-4-----7---------|-----------------|-2-----2-2-------|
|-----------------|---------5-----7-|-----------------|-----------------|
|-----------------|-----------------|-5-----5-5-------|-----------------|
 Q.  E Q.  E  Q.  E Q.  E  Q.  E H     Q.  E H

|-----------------|-----------------|-----------------|-----------------|
|-4-----4-4-------|-4-----4---------|-----------------|-2-----2-2-4---5-|
|---------------4-|---------5-----7-|-----------------|-----------------|
|-----------------|-----------------|-5-----5-5-------|-----------------|
 Q.  E Q.  E  Q.  E Q.  E  Q.  E H     Q.  E E Q  E

|-----------------|-----------------|-----------------|-----------------|
|(5)------5-----2-|-----------------|-------------2-4-|-------5---5-5---|
|-------5---------|---------------7-|-5-----5-5-------|---------------5-|
|-----------------|-5-----5-5-------|-----------------|-5-5-------------|
 Q.  E Q.  E  Q.  E Q.  E  Q.  E Q  E E  E Q  Q  E  E

|-----------------|-----------------|-----------------|-----------------|
|-5-------5-------|---------------7-|-------------2-4-|-------5---5-5-7-|
|-------5-------7-|-----------------|-5-----5-5-------|-----------------|
|-----------------|-5-----5-5-------|-----------------|-5-5-------------|
 Q.  E Q.  E  Q.  E Q.  E  Q.  E Q  E E  E Q  Q  E E E


Bridge 2

|-----------------|-----------------|-----------------|-----------------|
|---------------5-|(5)------5---5-7-|---------------5-|(5)5---3-----3---|
|-5-----3---3-----|-------5---5-----|-5-------5---5---|-----5-----3-----|
|---------5-------|-----------------|-------5---5-----|-----------------|
 Q.  E E E E E  Q.  E E E E E  Q.  E E E E E  E E E Q  E Q


Chorus 2

|-2-----------2-3-|---------------4-|-----------------|-----------------|
|-----------------|-----------------|-5-----5-5-----5-|-5-----5-5-----5-|
|-----------------|-2-----2-2-------|-----------------|-----------------|
|---------0-------|-----------------|-----------------|-----------------|
 H    Q  E E  Q.  E Q.  E  Q.  E Q.  E  Q.  E Q.  E

|-----------------|-----------------|-----------------|-----------------|
|-4-----4-4-2---4-|(4)----4-4-------|-----------------|-----------------|
|-----------------|-------------2-3-|-4-----4-4-----4-|-5-----5---------|
|-----------------|-----------------|-----------------|---------5-----5-|
 Q.  E E Q  E  Q.  E Q  E E  Q.  E Q.  E  Q.  E Q.  E

|-----------------|-----------------|
|-----------------|-----------------|
|-7-----7-7-5---7-|(7)----2---------|
|-----------------|---------0-------|
 Q.  E E Q  E  Q.  E H


Solo

|-----------------|-----------------|-----------------|-----------------|
|-4---------------|-4---------------|-----------------|-2-----2-2-------|
|-----------------|---------5-------|-----------------|-----------------|
|-----------------|-----------------|-5-----5-5-------|-----------------|
 W         H    H     Q.  E H     Q.  E H

|-----------------|-----------------|-----------------|-----------------|
|-4-----4-4-----4-|-4-----7---------|-----------------|-2-----2-2-4---5-|
|-----------------|---------5-----7-|-----------------|-----------------|
|-----------------|-----------------|-5-----5-5-------|-----------------|
 Q.  E Q.  E  Q.  E Q.  E  Q.  E H     Q.  E E Q  E


Verse 3

|-----------------|-----------------|-----------------|-----------------|
|(5)----5-5-------|-----------------|-----------------|-7-7---5---------|
|-----------------|---------------7-|-5-----5-5-------|-----------------|
|-----------------|-5-----5-5-------|-----------------|-----------------|
 Q.  E H     Q.  E Q.  E  Q.  E H     E Q  E H

|-----------------|-----------------|-----------------|-----------------|
|-5-------5-------|-----------------|-----------------|-7-7---5---------|
|-------5-------7-|-----------------|-5-----5-5-----7-|-----------------|
|-----------------|-5-----5-5-------|-----------------|-----------------|
 Q.  E Q.  E  Q.  E H     Q.  E Q.  E  E Q  E H


Bridge 3

|-----------------|-----------------|-----------------|-----------------|
|---------------5-|(5)------5-5---7-|---------------5-|(5)----3-----3---|
|-5-5---5---3-----|-------5---------|-5-------5-5-5---|-----------3-----|
|-----------------|-----------------|-------5---------|-----------------|
 E Q  Q  Q  E  Q.  E E Q  E  Q.  E E E E E  Q.  Q  E Q


Chorus 3

|-----------------|---------4-------|-----------------|-----------------|
|-----------------|-----------------|-5-----5-5-------|-5-----5-5-----5-|
|---------7-------|-2-----2---------|---------------5-|-----------------|
|-5-----------5---|-----------------|-----------------|-----------------|
 H    Q  Q   Q.  E H     Q.  E Q.  E  Q.  E Q.  E

|-----------------|-----------------|-----------------|-----------------|
|-4-----4-4-2---4-|(4)----4-4-------|-----------------|-----------------|
|-----------------|-------------2-3-|-4-----4-4-----4-|-5-----5---------|
|-----------------|-----------------|-----------------|---------5-----7-|
 Q.  E E Q  E  Q.  E Q  E E  Q.  E Q.  E  Q.  E Q.  E

|-----------------|-----------------|
|-----------------|-----------------|
|-7-----7-7-5---7-|(7)----2---------|
|-----------------|---------0-------|
 Q.  E E Q  E  Q.  E H


Outro                     _____   _____
                       | 3 |  | 3 |
|-----------------|-----------------|------11-9--6----|-----------------||
|-4---------------|-4---------------|---------------7-|----------7------||
|-----------------|---------5-------|-0---------------|-7---------------||
|-----------------|-----------------|-----------------|----0--5---------||
 W         H    H     Q.  E Q Q Q  Q Q Q H


Key to rhythm notations:

W - Whole Note/Semi-Brieve
H - Half Note/Minim
Q - Quarter Note/Crotchet	Q. - Dotted Quarter Note
E - Eight Note/Quaver		E. - Dotted Eight Note
S - Sixteenth Note/Semi-Quaver	S. - Dotted Sixteenth Note
ⓘ Bass guitar tab for 'Razor Boy' by Steely Dan, a rock band formed in 1972 from Annandale-on-Hudson, USA. Steely Dan is known for their good natured rock/pop music.

Almost there ...

Sign in to get your own page with links to favourite songs and more. You are just one click away...

Login with Facebook Login with Google