Log in

One click and you are in

Login with Facebook Login with Google

Why sign up and log in

Guitar Tabs Explorer
Starsailor guitar tabs for Silence is easy

Guitar tabs with lyrics

Band: Starsailor
Album: Silence is Easy

This song was released 1st September 2003, from their
second album called Silence is Easy.
CHORDS USED:

    A chord diagramE MajorE       A chord diagramA augmentedA
E:--0-------0----|
B:--0-------2----|
G:--1-------2----|
D:--2-------2----|
A:--2-------0----|
e:--0------------|

The chord changes go something like this:

A chord diagramE MajorE
Everybody says that they're looking for a shelter,

A chord diagramA augmentedA
Got a lot to give but don't know how to tell her,

A chord diagramE MajorE
Maybe just... etc.

The chord progression is on piano and guitar, and stays
the same throughout the song.

Later on, another guitar comes in and plays:

  A chord diagramE MajorE
E:7-------7-------|7-------7-------|
B:----9-------9---|----9-------9---|
G:--9---9---9---9-|--9---9---9---9-|
D:----------------|----------------|
A:----------------|----------------|
e:----------------|----------------|

  A chord diagramA augmentedA
E:9--------9--------|9--------9--------|
B:----10-------10---|----10-------10---|
G:--9----9---9----9-|--9----9---9----9-|
D:------------------|------------------|
A:------------------|------------------|
e:------------------|------------------|

I'm not sure if he actually plays any notes on the A chord diagramG+G
string, but it sounds OK anyway.

Repeat till end.

This is all my own work.

Stew C.

_________________________________________________________________

Almost there ...

Sign in to get your own page with links to favourite songs and more. You are just one click away...

Login with Facebook Login with Google