Log in

One click and you are in

Login with Facebook Login with Google

Why sign up and log in

Guitar Tabs Explorer
Starkid bass tabs for The guy who didnt like musicals - show me your hands

The Guy Who Didn't Like Musicals - Show Me Your Hands bass tab by Starkid

Starkid bass tabs for The guy who didnt like musicals - show me your hands

Bass tabs

Tuning: Standard (E A D G)


Intro:
G|----------------------------------|
D|----------------------------------|
A|-----1-2-3-2-1--------1-2-3-2-1---|
E|-1-4-----------4--1-4-----------4-|
Verse 1:
Ma'am I need you to...        Yeah we're cops...
G|----------------------------------|--------------------------|
D|----------------------------------|--------------------------|
A|-----1-2-3-2-1--------1-2-3-2-1---|--------------1-2-3-2-1---|
E|-1-4-----------4--1-4-----------4-|-4-4-6-6--1-4-----------4-|


Verse 2:
You better empty out...       Yeah weƤre cops...
G|----------------------------------|----------------------|
D|----------------------------------|----------------------|
A|-----1-2-3-2-1--------1-2-3-2-1---|--------------1-2-3-3-|
E|-1-4-----------4--1-4-----------4-|-4-4-6-6--1-4---------|


Chrous:
Show me your hands...
G|-----------------------------------------------------------------------------|
D|-----------------------------------------------------------------------------|
A|-------------1--1-1---------------1--1-1------------1--1-1-------------------|
E|-8\1--1-1--4---------4--1--1-1--4---------1--1-1--4---------4--4-4--4/6--6-6-|


Verse 3:
          You go forty in a thirty five...    Cos we're cops...
G|-----------------|--------------------------------------|--------------------------|
D|-----------------|--------------------------------------|--------------------------|
A|-----1-2-3-2-1---|---------1-2-3-2-1--------1-2-3-2-1---|--------------1-2-3-2-1---|
E|-1-4-----------4-|-1/6\1-4-----------4--1-4-----------4-|-4-4-6-6--1-4-----------4-|

Verse 4:
Cathy lost her cat...        Cos we're cops...
G|----------------------------------|----------------------|
D|----------------------------------|----------------------|
A|-----1-2-3-2-1--------1-2-3-2-1---|--------------1-2-3-3-|
E|-1-4-----------4--1-4-----------4-|-4-4-6-6--1-4---------|

Chrous:
Show me your hands...
G|-----------------------------------------------------------------------------|
D|-----------------------------------------------------------------------------|
A|-------------1--1-1---------------1--1-1------------1--1-1-------------------|
E|-8\1--1-1--4---------4--1--1-1--4---------1--1-1--4---------4--4-4--4/6--6-6-|


Break:
Step away from the vehicle...    911 emergency...
G|---------------------------------|-----------------|
D|---------------------------------|-----------------|
A|-------------4-4-------------4-4-|-------------4-4-|
E|-1-1-4-4-6-6-----1-1-4-4-6-6-----|-1-1-4-4-6-6-----|

No bass


Chorus:
Show me your hands...
G|---------------------------------------------------------------|
D|---------------------------------------------------------------|
A|-----------4-4---------------4-4-4-------------4-4-------------|
E|-4-4--7-7------7-6--4-4--7-7-------7--4-4--7-7-----7--7-7--9-9-|


************************************

| / Slide up
| \ Slide down

************************************

Almost there ...

Sign in to get your own page with links to favourite songs and more. You are just one click away...

Login with Facebook Login with Google