Log in

One click and you are in

Login with Facebook Login with Google

Why sign up and log in

Guitar Tabs Explorer
Chris Stapleton tabs for Whiskey and you

Guitar tabs with lyrics

"Whiskey and You"
Chris Stapleton
Traveller (2015)


Intro:

A chord diagramE MajorE |----------------------------------------------------|----------------------------------------------------|
A chord diagramBB |----------------------------------------------------|----------------------------------------------------|
A chord diagramG+G |----------------------------------------------------|----------------------------------------------------|
A chord diagramD MajorD |--2h4---------4-----------4h5---------5-------------|--5h7---------7-----------7h5---------5-------------|
A chord diagramA augmentedA |--0-------------------------------------------------|----------------------------------------------------|
A chord diagramD MajorD |--0-----0-----------0-----------0-----------0-------|--------0-----------0-----------0-----------0-------|

(Play this over all of the A chord diagramD MajorD chords)
----------------------------------------------------|----------------------------------------------------|
----------------------------------------------------|----------------------------------------------------|
----------------------------------------------------|----------------------------------------------------|
--2h4---------4-----------4h5---------5-------------|--5h7---------7-----------5-----------5-------------|
--0-------------------------------------------------|----------------------------------------------------|
--0-----0-----------0-----------0-----------0-------|--------0-----------0-----------0-----------0-------|
                                                                                         There's a


Verses:

----------------------------------------------------|----------------------------------------------------|
----------------------------------------------------|----------------------------------------------------|
----------------------------------------------------|----------------------------------------------------|
--2h4---------4-----------4h5---------5-------------|--5h7---------7-----------5-----------5-------------|
--0-------------------------------------------------|----------------------------------------------------|
--0-----0-----------0-----------0-----------0-------|--------0-----------0-----------0-----------0-------|
  bottle                              On the            dresser    by your      ring            And it's

        (play this line over the A chord diagramB minorBm to A chord diagramBsus2Bsus2 chord lines)
----------------------------|----------------------------------------------------|
--------3-----2-----2-------|--2h3---------3-----------2-----------2-------------|
--------4-----4-----4-------|--4-----------4-----------4-----------4-------------|
-----4----------------------|----------------------------------------------------|
--2--------2-----2-----2----|--------2-----------2-----------2-----------2-------|
----------------------------|----------------------------------------------------|
  empty         So right now    I don't feel a thing                    I'll be

----------------------------------------------------|----------------------------------------------------|
----------------------------------------------------|----------------------------------------------------|
----------------------------------------------------|----------------------------------------------------|
--2h4---------4-----------4h5---------5-------------|--5h7---------7-----------5-----------5-------------|
--0-------------------------------------------------|----------------------------------------------------|
--0-----0-----------0-----------0-----------0-------|--------0-----------0-----------0-----------0-------|
  hurtin'                               When I          wake up    on   the     floor         And I'll be

 (play this line over the A chord diagramB minorBm to A chord diagramBm/ABm/A to A chord diagramG+G to A chord diagramG6G6 chord lines)
----------------------------|----------------------------------------------------|
--------3-----------3-------|----------------------------------------------------|
--------4-----------4-------|----------------------------------------------------|
-----4-----4-----4-----4----|--------------------10----9-----------9-------------|
--2-----------0-------------|--------5-----5h7---------------5-----------5-------|
----------------------------|--/5----------------------5-----------5-------------|
  O    -   ver it       by   noon                                       That's the diff'rence

              ^              (2nd ending)
----------------------------||--------------------------2-----------2-------------|
--------3-----2-------------||--------------------------3-----------3-------------|
-----2--2-----2-------------||--------2--------------2--0h2---------2-------------|
--0--------0--2-------------||--------0-----------0-----0-----------0-------------|
--------------0-------------||--------------0h2---------0-----------0-------------|
--0-------------------------||--0-----------------------0-----------0-------------|
      between whiskey and you                                       One's the


 Chorus:

Repeat x2
----------------------------------------------------|----------------------------|
--2-----------2h3---------3h2---------2-------------|----------------------------|
--2-----------2-----------2-----------2-------------|----------------------------|o
----------------------------------------------------|-----5-----5-----5--5--5----|
--------0-----------0-----------0-----------0-------|-/5--5--5--5--5--5--5--5----|o
----------------------------------------------------|-/5--5--5--5--5--5--5--5----|
 devil                                One keeps        driving me insane   At times I
 wonder                                     If          they ain't both the same One's a

----------------------------------------------------|----------------------------------------------------|
----------------------------------------------------|----------------------------------------------------|
----------------------------------------------------|----------------------------------------------------|
--2h4---------4-----------4h5---------5-------------|--5h7---------7-----------5-----------5-------------|
--0-------------------------------------------------|----------------------------------------------------|
--0-----0-----------0-----------0-----------0-------|--------0-----------0-----------0-----------0-------|
 liar                                 Helps to         hide me  from my pain              And one's a

----------------------------|----------------------------------------------------|
--------3-----------3-------|----------------------------------------------------|
--------4-----------4-------|----------------------------------------------------|
-----4-----4-----4-----4----|--------------------10----9-----------9-------------|
--2-----------0-------------|--------5-----5h7---------------5-----------5-------|
----------------------------|--/5----------------------5-----------5-------------|
 long      gone  bitter      truth                              That's the diff'rence

              ^ (to verse)      (2nd ending)
----------------------------||----------------------------------------------------|
--------3-----2-------------||-----------------------3----------------------------|
-----2--2-----2-------------||--------2h4---------2-------------------------------|
--0--------0--2-------------||----------------------------------------------------|
--------------0-------------||--2-----------0-----------/5------------------------|
--0-------------------------||--------------------------/5------------------------|
      between whiskey and you                                   Oh      that's the diff'rence

              ^                                                                            ^
----------------------------|--------------------------2------------------------||
--------3-----2-------------|--------------------------3------------------------||
-----2--2-----2-------------|--------2--------------0--0h2----------------------||
--0--------0--2-------------|--------0-----------0-----0------------------------||
--------------0-------------|--------------0h2---------0------------------------||
--0-------------------------|--0-----------------------0------------------------||
      between whiskey and you


Intro:
|A chord diagramD MajorD      A chord diagramDsus4Dsus4   |A chord diagramD5D5       A chord diagramDsus4Dsus4|
|A chord diagramD MajorD      A chord diagramDsus4Dsus4   |A chord diagramD5D5       A chord diagramDsus4Dsus4|


Verse 1:
          A chord diagramD MajorD
There s a bottle on the dresser by your ring
         A chord diagramB minorBm   A chord diagramBsus2Bsus2        A chord diagramB minorBm                A chord diagramBsus2Bsus2
And it s empty so right now I don t feel a thing
            A chord diagramD MajorD
And I ll be hurtin' when I wake up on the floor
            A chord diagramB minorBm   A chord diagramBm/ABm/A  A chord diagramG+G        A chord diagramG6G6
But I ll be over it by noon
            A chord diagramD MajorD                 A chord diagramA augmentedA              (play intro 2nd line)
That s the difference between whiskey and you


Verse 2:
       A chord diagramD MajorD
Come tomorrow, I can walk in any store
            A chord diagramB minorBm   A chord diagramBsus2Bsus2      A chord diagramB minorBm             A chord diagramBsus2Bsus2
It ain t a problem, they ll always sell me more
             A chord diagramD MajorD
But your forgiveness, Well, that s something I can t buy
              A chord diagramB minorBm         A chord diagramBm/ABm/A  A chord diagramG+G        A chord diagramG6G6
There ain t a thing that I can do
            A chord diagramD MajorD                 A chord diagramA augmentedA              (play verse 2nd ending)
That s the difference between whiskey and you


Chorus:
          A chord diagramA augmentedA                A chord diagramG+G
One s the devil, one keeps driving me insane
           A chord diagramA augmentedA         A chord diagramG+G
At times I wonder if they ain t both the same
            A chord diagramD MajorD
But one s a liar that helps to hide me from my pain
              A chord diagramB minorBm     A chord diagramBm/ABm/A        A chord diagramG+G      A chord diagramG6G6
And one s the long gone bitter truth
           A chord diagramD MajorD                  A chord diagramA augmentedA              (play intro 2nd line)
That s the difference between whiskey and you


Verse 3:
           A chord diagramD MajorD
I ve got a problem but it ain t like what you think
  A chord diagramB minorBm                A chord diagramBsus2Bsus2            A chord diagramB minorBm                    A chord diagramBsus2Bsus2
I drink because I m lonesome and I m lonesome  cause I drink
               A chord diagramD MajorD
But if I don t break down and bring it on myself
      A chord diagramB minorBm      A chord diagramBm/ABm/A   A chord diagramG+G          A chord diagramG6G6
It ll hit out of the blue
           A chord diagramD MajorD                  A chord diagramA augmentedA              (play verse 2nd ending)
That s the difference between whiskey and you


Chorus:
          A chord diagramA augmentedA                A chord diagramG+G
One s the devil, one keeps driving me insane
           A chord diagramA augmentedA         A chord diagramG+G
At times I wonder if they ain t both the same
            A chord diagramD MajorD
But one s a liar that helps to hide me from my pain
              A chord diagramB minorBm     A chord diagramBm/ABm/A        A chord diagramG+G      A chord diagramG6G6
And one s the long gone bitter truth
           A chord diagramD MajorD                  A chord diagramA augmentedA              (play chorus 2nd ending)
That s the difference between whiskey and you
               A chord diagramD MajorD                  A chord diagramA augmentedA           A chord diagramD MajorD
Ah, that s the difference between whiskey and you

Other versions of Whiskey And You

Whiskey and youChords
Whiskey and you (Ver. 2)Chords
Whiskey and you acousticTabs

Almost there ...

Sign in to get your own page with links to favourite songs and more. You are just one click away...

Login with Facebook Login with Google