Log in

One click and you are in

Login with Facebook Login with Google

Why sign up and log in

Guitar Tabs Explorer
Chris Stapleton guitar tabs for Tennessee whiskey

Guitar tabs with lyrics

Chris Stapleton
Tennessee Whiskey
From "Traveller"
Tabbed by thatchadmiller (Twitter)
Intro
           A chord diagramA majorA            A chord diagramBm7Bm7                                A chord diagramA majorA
e|--------------------------------------------------------------------|
B|--------------------------------------------------------------------|
G|--------------------------------------------------------------------|
D|--------------------------------------------------------------------|
A|------0-2>4~~~--2>4-2-0-2>4-2~~~--2>4-2>4-2>4-2~~--2>4-2-0-0~~------|
E|--0-2---------------------------------------------------------------|


Verse 1
A chord diagramA majorA                                      A chord diagramBm7Bm7
I used to spend my nights out in a barroom
                                 A chord diagramA majorA  A6sus4 A chord diagramA majorA
Liquor was the only love I d known
                                           A chord diagramBm7Bm7
But you rescued me from reachin? for the bottom
                                         A chord diagramA majorA  A6sus4  A chord diagramA majorA
And brought me back from being too far gone


Chorus
A chord diagramA majorA             A6sus4 A chord diagramA majorA                A chord diagramBm7Bm7
You re as smooth         as Tennessee whiskey
                                 A chord diagramA majorA  A6sus4 A chord diagramA majorA
You re as sweet as strawberry wine
                               A chord diagramBm7Bm7
You re as warm as a glass of brandy
                                                A chord diagramA majorA  A6sus4 A chord diagramA majorA
And honey, I stay stoned on your love all the time


Verse 2
I ve looked for love in all the same old places
Found the bottom of a bottle always dry
But when you poured out your heart I didn t waste it
 Cause there s nothing like your love to get me high


Chorus


Solo
e|---------------------------------------------------------------------------|
B|-------10-12b14---------14--14<12~~--------14--14<12~~---12-12-10~~--------|
G|--9-11---------------------------------------------------------------------|
D|------------------12>14~~~--14<12~~-12>>14~~~--14<12~~---12-12-11~~--------|
A|---------------------------------------------------------------------------|
E|---------------------------------------------------------------------------|

e|---------------------------------------------------------------------------|
B|--------------------------10~~---12b14r12-10~~~--14b15-14b15---------------|
G|------------------9-11-11------------------------------------14-14~~~------|
D|------7---7--9>11----------------------------------------------------------|
A|--7h9---9------------------------------------------------------------------|
E|---------------------------------------------------------------------------|

e|------------------------------------------------------------------------------|
B|-------------------------------------------------------------------------10---|
G|--9>11-9-11---------------------------------------------------------9-11---11-|
D|--9>11-9----9-7-----------7-9b10r7~~~------7---7---------7-9-7-9>11-----------|
A|----------------9~~---7-9--------------7h9---9---9r7~~-9----------------------|
E|------------------------------------------------------------------------------|


Chorus


For the quick A6sus4, play that chord John Lennon used all over the Let It Be album:
e|-(5)-------------|
B|--3--------------|
G|--2--------------|
D|--4--------------|
A|--0--------------|
E|-----------------|
(fifth fret on the A chord diagramE MajorE string is optional - I usually just mute it)
Also, feel free to play a A chord diagramD MajorD in place of that or just a regular A chord diagramAsus4Asus4


If you have any input or corrections, hit me up on twitter and also let me

Other versions of Tennessee Whiskey

Tennessee whiskeyChords
Tennessee whiskey (Ver. 2)Chords
Tennessee whiskey ukuleleChords
Tennessee whiskey - introTabs

↓ Add and view comments below ↓

What do you think about this song and these tabs?

Add your comments, questions, rant or a thumbs up below.

Almost there ...

Sign in to get your own page with links to favourite songs and more. You are just one click away...

Login with Facebook Login with Google