Log in

One click and you are in

Login with Facebook Login with Google

Why sign up and log in

Guitar Tabs Explorer
Chris Stapleton bass tabs for Tennessee whiskey

Tennessee Whiskey bass tab by Chris Stapleton

Chris Stapleton bass tabs for Tennessee whiskey

Bass tabs

Tennessee Whiskey

G ---------------------------------------------------
D ----------7----------------------9---7-------7-----
A -------7------9---7---9-------9----------9---------
E --5----------------------7----------------------7--

G ---------------------------------------------
D ------9---7-----7-----------7----------------
A --9----------9----------7------9--7----------
E --------------------5-----------------0-4-5--

Almost there ...

Sign in to get your own page with links to favourite songs and more. You are just one click away...

Login with Facebook Login with Google