Log in

One click and you are in

Login with Facebook Login with Google

Why sign up and log in

Guitar Tabs Explorer
Chris Stapleton bass tabs for Starting over

Bass tabs

Tuning: Standard (E A D G)


Verse 1:

G|---------------|--7---5--/10---7-|--8------------|--8---7----------|
D|--8------------|-----------------|---------------|---------10------|
A|---------------|-----------------|---------------|--------------10-|
E|---------------|-----------------|---------------|-----------------|
  W        Q  Q  Q  Q  W        Q  Q  Q  Q
G|---------------|--10-------------|---------------|-----------------|
D|---------------|-------8---------|---------------|-----------------|
A|--8----------8-|-----------8---8-|--6------------|--6---5--------5-|
E|---------------|-----------------|---------------|----------10-----|
  H.   e E   Q. E  Q. E  W        Q  Q  Q  Q


Chorus:

G|------------------|----------------|------------------|----------------------|----------------|
D|----------------0-|--1-------------|---------------0--|--1---------------/5--|--3-------3-----|
A|------0---1---1---|------0---1-----|-------0---1-1----|------0---1- 1-1------|----------------|
E|--3---------------|----------------|--3---------------|----------------------|----------------|
  Q  Q  Q  E E  Q  Q  H    Q  Q  Q E E   Q  Q  Q S S  E   H    H

G|----------------|----------------|---------------|---------------|-----------|----------------|
D|--1-------1-----|--1---0---------|---------------|--0------3---0-|--1--------|--1---0---------|
A|----------------|----------3---0-|--1------------|------3--------|-----------|----------3---0-|
E|----------------|----------------|---------------|---------------|-----------|----------------|
  H    H    Q  Q  Q  Q  W        Q  Q Q  Q  W      Q  Q  Q  Q


Verse 2:

G|---------------|--3---0---------|---------|-------------|-----------|----------------|---------|-----------|
D|---------------|----------3---0-|--1------|--1-------/3-|-----------|--3-------------|--1------|--1-----/3-|
A|--1----------1-|----------------|---------|-------------|-----------|------3---------|---------|-----------|
E|---------------|----------------|---------|-------------|--1------1-|----------1---1-|---------|-----------|
  H.    e E  Q  Q  Q  Q  W     H.   Q   H.   E  Q. E  Q. E  W     H.   Q

G|---------|----------------|---------|-------------0-|-----------|---------------|---------|----------------|
D|---------|--0-------3---0-|--1------|--1---0--------|--3--------|--3------------|--1------|--1---0---------|
A|--1------|------3---------|---------|----------3----|---------3-|-----3-----3/5-|---------|----------3---1-|
E|---------|----------------|---------|---------------|-----------|--------1------|---------|----------------|
  W     Q  Q  Q  Q  W     Q  Q  Q Q  H.  e E  Q. E Q.  E  W     Q  Q  Q  Q

Chorus:

G|------------------|----------------|------------------|----------------------|----------------|
D|----------------0-|--1-------------|---------------0--|--1---------------/5--|--3-------3-----|
A|------0---1---1---|------0---1-----|-------0---1-1----|------0---1- 1-1------|----------------|
E|--3---------------|----------------|--3---------------|----------------------|----------------|
  Q  Q  Q  E E  Q  Q  H    Q  Q  Q E E   Q  Q  Q S S  E   H    H

G|----------------|----------------|---------------|---------------|-----------|----------------|
D|--1-------1-----|--1---0---------|---------------|--0------3---0-|--1--------|--1---0---------|
A|----------------|----------3---0-|--1------------|------3--------|-----------|----------3---0-|
E|----------------|----------------|---------------|---------------|-----------|----------------|
  H    H    Q  Q  Q  Q  W        Q  Q Q  Q  W      Q  Q  Q  Q


Instrumental:

G|----------------|----------------|----------------|---------------|-----------------|
D|----------------|----------------|----------------|---------------|-----------------|
A|--3-------------|--1-------------|--3-------------|-------------3-|--/7-------------|
E|----------3-----|----------------|----------3-----|--1------------|-----------------|
  H    H    W        H    H    H.    e E   W


Chorus:

G|------------------|----------------|------------------|----------------------|----------------|
D|----------------0-|--1-------------|---------------0--|--1---------------/5--|--3-------3-----|
A|------0---1---1---|------0---1-----|-------0---1-1----|------0---1- 1-1------|----------------|
E|--3---------------|----------------|--3---------------|----------------------|----------------|
  Q  Q  Q  E E  Q  Q  H    Q  Q  Q E E   Q  Q  Q S S  E   H    H

G|----------------|----------------|---------------|---------------|-----------|----------------|
D|--1-------1-----|--1---0---------|---------------|--0------3---0-|--1--------|--1---0---------|
A|----------------|----------3---0-|--1------------|------3--------|-----------|----------3---0-|
E|----------------|----------------|---------------|---------------|-----------|----------------|
  H    H    Q  Q  Q  Q  W        Q  Q Q  Q  W      Q  Q  Q  Q

 {Outro]

G|----------------|--7---5--/10---7-|--8-------------|--8---7-----------|----------------|
D|--8-------------|-----------------|----------------|----------10------|--8-------------|
A|----------------|-----------------|----------------|---------------10-|----------------|
E|----------------|-----------------|----------------|------------------|----------------|
  W         Q  Q  Q  Q  W        Q  Q  Q  Q   W

G|--7---5--/10---7-|--8-------------|--8---7----------|-----------------|
D|-----------------|----------------|----------10-----|-8---------------|
A|-----------------|----------------|--------------10-|-----------------|
E|-----------------|----------------|-----------------|-----------------|
  Q  Q  Q  Q  W        Q  Q  Q  Q  W


************************************

| / Slide up

************************************

Almost there ...

Sign in to get your own page with links to favourite songs and more. You are just one click away...

Login with Facebook Login with Google