Log in

One click and you are in

Login with Facebook Login with Google

Why sign up and log in

Guitar Tabs Explorer
Chris Stapleton bass tabs for Parachute

Bass tabs

Intro:

Gb|------------12-----------------------------------|-----------------------|
Db|------12-14----14-12-9------------9--------------|-----10~~~10/14~~~-----|
Ab|-9/12----------------------10-12----12-10--------|-8/10------------------|
Eb|-----------------------8/10---------------8------|-----------------------|
                        (x2) ^Play at end of intro^

Verse 1:

Come in at 0:28 (right before "and the memories keep on turning...")

Gb|----------12--------------------------------------------------------------|
Db|-------14----14-12-9------------9---------------10~~10~~10~~10\-----------|
Ab|-10/14--------------------10-12---12-10-----8/10--------------------------|
Eb|----------------------8/10--------------8~~~------------------------------|


Chorus:
 "You only need a roof when it's raining..."
Gb|--------------------------------------------------------------------------|
Db|----------------------------------------7-5-------------------------------|
Ab|------------------------2/5-5-5-5-5-0-------7-5---------------------------|
Eb|-0-0-0-0-0-2-3-3-3-0-3----------------8---------7-------------------------|
                           (x3)
 "Say the word and I'll be there for you..."
Gb|--------------------------------------------------------------------------|
Db|--------------------------------------------------------------------------|
Ab|------------------------2/5-5-5-5-5---5-5-5-5-----------------------------|
Eb|-0-0-0-0-0-2-3-3-3-0-3--------------5-------------------------------------|

Gb|------------12-----------------------------------|------------------------|
Db|------12-14----14-12-9------------9--------------|------------------------|
Ab|-9/12----------------------10-12----12-10--------|------------------------|
Eb|-----------------------8/10---------------8------|--x--12\----------------|
                        (x2)


Verse 2:

Gb|--------------------------------------------------------------------------|
Db|--------------------------------------------------------------------------|
Ab|------------------2/5--5-5-7-5\3-3-3---3h5--------------------------------|
Eb|-0-0-0-0-3-3-3-3----------------------------0-----------------------------|

Gb|------------------------------------------5-------------------------------|
Db|---------5-5-5-5----------------------5h7---7p5---------------------------|
Ab|------------------5-5-5-5-3-3-3-3-3/5-----------5\------------------------|
Eb|-0-0-0-0------------------------------------------------------------------|


Chorus:

Gb|--------------------------------------------------------------------------|
Db|------------------------------------7-5-----------------------------------|
Ab|----------------------2/5-5-5-5-0-------7-5-------------------------------|
Eb|-0-0-0-0-2-3-3-3-0-3--------------8---------7-----------------------------|

Gb|--------------------------------------------------------------------------|
Db|---------------------------------------------7----------------------------|
Ab|---------------------2/5-5-5-5-0---7-7h10-7-------------------------------|
Eb|-0-0-0-0-2-3-3-3-0-3-------------8----------------------------------------|

 "Sun comes up and goes back down..."
Gb|--------------------------------------------------------------------------|
Db|------------------------------------------------7-------------------------|
Ab|---------------------2/5-5-5-5-0----7-7h10-7-10---------------------------|
Eb|-0-0-0-0-2-3-3-3-0-3--------------8---------------------------------------|

"Say the word and I'll be there for you..."
Gb|--------------------------------------------------------------------------|
Db|--------------------------------------------------------------------------|
Ab|---------------------2/5-5-5-5---5-5-5-5-----5-5-5-5----------5-5-5-5-7\--|
Eb|-0-0-0-0-2-3-3-3-0-3------------5---------0-3----------5\0-3--------------|


Interlude/Solo:

Gb|---------------------------------------------------------------------------|
Db|---------------------------------------------------------------------------|
Ab|---------------------2/5--5-5--5\3--3--3h5p3-------------------------------|
Eb|-0-0-0-0-2-3-3-3-0-3-------------------------5-3-0-0-0-0-2-3-3-3-0-3-------|

Gb|---------------------------------------------------------------------------|
Db|-------------5h7p5---------------------------------------------------------|
Ab|-2/5-5-5-5\3-------7-5-7-5-------------------------------------------------|
Eb|---------------------------------------------------------------------------|


Bridge:
 "If you think you're going down..."
Gb|----------------------------------------------------------------------------|
Db|-------------------------------7h10p7---------------------------------------|
Ab|-5-5-5-5--7h9p7------------7-10-------10-7----------------------------------|
Eb|----------------10-7-8-8-8--------------------------------------------------|

 "Just know I will be around..."
Gb|----------------------------------------------------------------------------|
Db|------------------------------------10-7------------------------------------|
Ab|-5-5-5-5--7h9-7----------------7-10-------------7---------------------------|
Eb|----------------10--7--8--8-8-------------8-10------------------------------|


Outro:

 Come back in at "you only need a drink when..."

Gb|------------12-------------------------------------------------------------|
Db|------12-14----14-12-9------------9----------------------------------------|
Ab|-9/12-----------------------10-12---12--10---------------------------------|
Eb|-----------------------8/10----------------8-8-8\5-3-0-0-0-0-2-3-3-3-3-0-3-|

Gb|---------------------------------------------------------------------------|
Db|----------------5h7-5------------------------------------------------------|
Ab|-2/5-5-5-5-0----------7-5-----------------------2/5-5-5-5-0-5-5-5-5--------|
Eb|-------------8------------7-0-0-0-0-2-3-3-3-0-3----------------------------|

Gb|---------------------------------------------------------------------------|
Db|-7-9/12-12-12-------------------------------------------5-7-5--------------|
Ab|--------------12--------------------------2/5-5-5-5\0-3-------7-5----7----7|
Eb|-----------------8\0-0-0-0--0-2-3-3-3-0-3-------------------------7---0-0--|

Gb|---------------------------------------------------------------------------|
Db|---------------------------------------------------------------------------|
Ab|-------2/5-5-5-5-7-5---------------5---------------------------------------|
Eb|-3-3-3---------------8-8-8-8\3-0-3---0-------------------------------------|

Almost there ...

Sign in to get your own page with links to favourite songs and more. You are just one click away...

Login with Facebook Login with Google