Log in

One click and you are in

Login with Facebook Login with Google

Why sign up and log in

Guitar Tabs Explorer
Chris Stapleton tabs for Nobody to blame

Guitar tabs with lyrics

**Drop A chord diagramD MajorD tuning**

*Capo the 2nd fret and make a A chord diagramD MajorD chord shape (sounds like an A chord diagramE MajorE because of the Capo)
and then slide into a A chord diagramG+G power chord on the 5th fret (sounds like an A chord diagramA augmentedA) *

Like This:

            A chord diagramD MajorD     A chord diagramG+G
e-----------2-------x-------|
B-----------3-------x-------|
G-----------2-------x-------|
D-----------0-----3/5-------|
A-----------x-----3/5-------|
D-----------0-----3/5-------|


Intro Lick                 down strum up strum
e--------------------------2----------2|
B--------------------------3----------3|
G--------------------------2----------2|
D--------------------------0----------0|
A---4/5-55\4p0-------------------------|
D--------------3/5-55\3p0--------------|


Lick: Live he adds stuff like this in the intro and end of lines in the verses:
e---------------2-------------|
B---------------3-------------|
G---------------2-------------|
D---------------0-------------|
A------3p0--------------------|
D----------3p0----------------|

OR

e---------------2-------------|
B---------------3-------------|
G---------------2-------------|
D-----3p0-------0-------------|
A---------3p0-----------------|
D-----------------------------|

A chord diagramD MajorD
She took down the photograph of our wedding day
A chord diagramD MajorD
Ripped it down the middle and threw my half away
          A chord diagramG+G                   A chord diagramD MajorD
And I got nobody to blame but me (Lick)
      A chord diagramG+G                   A chord diagramD MajorD
I got nobody to blame but me (Lick)

A chord diagramD MajorD
She broke all my fishing rods, put my guns in hock
A chord diagramD MajorD
Threw my clothes out in the yard and changed out all the locks
          A chord diagramG+G                    A chord diagramD MajorD
And I got nobody to blame but me (Lick)
       G.                  A chord diagramD MajorD
I got nobody to blame but me (Lick)


Chorus:
A chord diagramD MajorD
I know right where I went wrong
A chord diagramG+G                        A chord diagramD MajorD
I know just what got her gone
A chord diagramD MajorD                                A chord diagramG+G
Turned my life into this country song
A chord diagramG+G                             A chord diagramD MajorD
And I got nobody to blame but me (Lick)
      A chord diagramG+G                   A chord diagramD MajorD
I got nobody to blame but me (Lick)


Lead Break:

e--------2-2------2-2------2-2------2-2------------------2--------|
B--------3-3------3-3------3-3------3-3------------------3--------|
G----0h2-2-2-0h2--2-2--0h2-2-2--0h2-2-2--0h2-0-----------2--------|
D--------0-0------0-0------0-0------0-0---------3p0------0--------|
A---------------------------------------------------3p0-----------|
D-----------------------------------------------------------------|

e---------------------2------|
B---------------------3------|
G---------------------2------| 3X
D--------0-3--3p0-----0------|
A--0h1/2----------3p0--------|
D----------------------------|

           up strum
e-----------2----------------|
B-----------3----------------|
G-----------2----------------|
D-----------0----------------|
A-----------0----------------|
D-----------0----------------|


She fired up my old hot rod, ran it in the pond
Put sugar in my John Deere, I can't even mow my lawn
And I got nobody to blame but me (lick)
I got nobody to blame but me (lick)

She built her a bonfire With my old six string
Took all my good whiskey and poured it down the drain
And I got nobody to blame but me (lick)
I got nobody to blame but me (lick)

Repeat Chorus

Other versions of Nobody To Blame

Nobody to blameChords

Almost there ...

Sign in to get your own page with links to favourite songs and more. You are just one click away...

Login with Facebook Login with Google