Log in

One click and you are in

Login with Facebook Login with Google

Why sign up and log in

Guitar Tabs Explorer
Chris Stapleton bass tabs for Broken halos

Bass tabs with lyrics

Tuning: Standard (E A D G)

Key: Ab

Difficulty: Intermediate

Gtr I (E A D G)

 Intro/Chorus
  Moderately Q=78
 4/4

  Wx2     E. S E H  +E  Q.   Q.  +E E
G|------------|-----------------|---------------------|
D|------------|-----------------|---------------------|
A|------------|-8--8------------|-4----/11----(11)----|
E|------------|--------4----(4)-|------------------9\-|
  Q E Q.  +Q   Q +s S H   S S
G|----------------|-----------------------|
D|----------------|-----------------------|
A|----------------|-4--(4)---11----11-10--|
E|-4----4----(4)--|-----------------------|


  E. e. H   +E  E. E.  H   S S  E. E. H  +S S  E. E. Q.  Q
G|------------------|--------------------|------------------|------------------|
D|------------------|--------------------|------------------|------------------|
A|-8--8--11----(11)-|-4--4--/11----11-10-|-8--8\------------|-4--/8--------6---|
E|------------------|--------------------|-------4----(4)-4-|--------\4--------|


 Verse
  Q E Q.  +Q   Q.   H   S S  E. e. H   +E  Q.   H   E
G|----------------|-------------------|------------------|------------------|
D|----------------|-------------------|------------------|------------------|
A|----------------|-4----/11----11-10-|-8--8--11----(11)-|-4----/11----11\--|
E|-4----4----(4)--|-------------------|------------------|------------------|

  Q E Q.  +Q   Q.   H   S S  E. e. H   +E  Q.   H  E
G|----------------|-------------------|------------------|-----------------||
D|----------------|-------------------|------------------|-----------------||
A|----------------|-4----/11----11-10-|-8--8--11----(11)-|-4----/11--------||
E|-4----4----(4)--|-------------------|------------------|-------------9\--||


 Chorus
  Q E Q.  +Q   Q.  H  E  Q.  H  E  Q.  Q.  S S E
G|----------------|-------------|-------------|-----------------|
D|----------------|-------------|-------------|-----------------|
A|----------------|-4---------4-|-8-----------|-4---------------|
E|-4----4----(4)--|------4------|------4----4-|------4----4-0-3-|


  Q E Q.  +Q   Q.  H  E  Q.  H  E  Q.  Q.  S S E
G|----------------|-------------|-------------|-----------------|
D|----------------|-------------|-------------|-----------------|
A|----------------|-4---------4-|-8-----------|-4-------------4-|
E|-4----4----(4)--|------4------|------4----4-|------4----0-4---|


  E. E. H  E  E. E. Q S S S S E  a E. S E H  E  E. E. Q S S S S E
G|--------------|--------------------|-----------------|---------------------|
D|--------------|--------------------|-----------------|---------------------|
A|-8--8---------|-4--4-------------4-|-----------------|------------------4--|
E|-------4----4-|-------4--4-0-4-6---|-6s8--8---8----8-|-4--4--4--4-0-4-6----|


  a E. S E H  E  E. S E Q.  E S S  E. E. H   +E
G|-----------------|-------------------|-10--8--10----(10)-||
D|-----------------|---------------6-8-|-------------------||
A|-----------------|-4--4---4----8-----|-------------------||
E|-6s8--8---8----8-|-------------------|-------------------||


  Wx4
G|--------|
D|--------|
A|--------|
E|--------|


  H.    Q   Q.  Q.  Q   Q.  Q.  +Q   Q.  Q.  +Q
G|-------------|----------------|-10--------------|-----------------|
D|-6-------10--|-11----6----10--|-------6----(6)--|-----------------|
A|-------------|----------------|-----------------|-4---------------|
E|-------------|----------------|-----------------|------4----(4)---|


  E. E. Q.  +Q   E. S E Q a E e S S
G|-----------------|----------------------|
D|-----------------|---------------10-8s6-|
A|-8--8------------|-4--4------4s8--------|
E|-------4----(4)--|--------4-------------|


  Q E Q.  +Q   Q.  H  E  Q.  H  E  Q.  Q  E S E.
G|----------------|-------------|-------------|-------------------|
D|----------------|-------------|-------------|-------------------|
A|----------------|-4---------4-|-8-----------|-4-------11---11\--|
E|-4----4----(4)--|------4------|------4----4-|------4------------|


  Q E Q.  +E S S  Q.  Q.  E S S  Q.  H  +E  Q.  Q.  E S S
G|-------------------|-------------------|---------------|--------------------|
D|-------------------|-------------------|---------------|--------------------|
A|-----------------3-|-4-----------11-10-|-8-------------|-4----11----0-11-10-|
E|-4----4----(4)-4---|------4----4-------|------4----(4)-|--------------------|


  Q.  H  E  E E E Q  E S S E  Q.  H  E  E E E Q.  S E S
G|-------------|----------------------|-------------|----------------------|
D|-------------|----------------------|-------------|----------------------|
A|-8-----------|-4-6-8----11-11-10-11-|-8-----------|-4-6-8-11----0-11-10--|
E|------4----4-|-------4--------------|------4----4-|----------------------|


          H.=H
  Q.  H  +E  E E E E E E E E  W
G|---------------|-----------5---8-|------*|
D|---------------|-------6-6---6---|-6----*|
A|-8-------------|-4-6-8-----------|------*|
E|------4----(4)-|-----------------|------*|


Duration 🏷Legend
---------------
W - whole; H - half; Q - quarter; E - 8th; S - 16th; T - 32nd; X - 64th; a - acciaccatura
+ - note tied to previous; . - note dotted; .. - note double dotted
Uncapitalized letters represent notes that are staccato (1/2 duration)
Irregular groupings are notated above the duration line
Duration letters will always appear directly above the note/fret number it represents the
duration for. Duration letters with no fret number below them represent rests. Multi-
bar rests are notated in the form Wxn, where n is the number of bars to rest for. Low
melody durations appear below the staff

Tablature 🏷Legend

| (n) Ghost note
| /  Slide up
| \  Slide down
| *  Natural harmonic
| s  legato slide

Tempo markers - = BPM(8/16=s8/s16), where s8 = swing 8ths, s16 = swing 16ths


***************************************************************************************
* Generated using Power Tab Editor by Brad Larsen - http://powertab.guitarnetwork.org *
***************************************************************************************

Almost there ...

Sign in to get your own page with links to favourite songs and more. You are just one click away...

Login with Facebook Login with Google