Log in

One click and you are in

Login with Facebook Login with Google

Why sign up and log in

Guitar Tabs Explorer
Stand Atlantic guitar tabs for Jurassic park

Guitar tabs

Tuning: Drop A chord diagramDbDb (A chord diagramDbDb A chord diagramAbAb A chord diagramDbDb A chord diagramGbGb A chord diagramBb majorBb A chord diagramEb MajorEb)

Verses:
Eb|---------------------------------------------------------------------------|
Bb|---------------------------------------------------------------------------|
Gb|---------------------------------------------------------------------------|
Db|----------------9---------------9----------------9--------------9----------|
Ab|---6---6-6-6-6-------7--7-7-7-7--------------------------------------------|
Db|-------------------------------------9--9-9-9-9-----9--9-9-9-9-------------|

Prechoruses:
Eb|---------------------------------------------------------------------------|
Bb|---------------------------------------------------------------------------|
Gb|--------------4-----------------4-------------------------------4----------|
Db|-----------------------------------------------4---------------------------|
Ab|-------------------------------------2--2-2-2--------2--2-2-2-2------------|
Db|--6---6-6-6-6------2---2-2-2-2---------------------------------------------|

Choruses:
Eb|---------------------------------------------------------------------------|
Bb|---------------------------------------------------------------------------|
Gb|-------------------------------------4--4-4-4-4---4--4-4-4-4---------------|
Db|--1--1-1-1-1------2--2-2-2-2---------4--4-4-4-4---4--4-4-4-4---------------| play twice
Ab|--1--1-1-1-1--4---2--2-2-2-2--4/6----2--2-2-2-2---2--2-2-2-2---------------|
Db|--1--1-1-1-1------2--2-2-2-2-----------------------------------------------|

Eb|---------------------------------------------------------------------------|
Bb|---------------------------------------------------------------------------|
Gb|---------------------------------4--4-4-4-4---4--4-4-4-4-------------------|
Db|--6---6-6-6-6----2---2-2-2-2-----4--4-4-4-4---4--4-4-4-4-------------------|
Ab|--6---6-6-6-6----2---2-2-2-2-----2--2-2-2-2---2--2-2-2-2-------------------|
Db|--6---6-6-6-6----2---2-2-2-2-----------------------------------------------|

Eb|---------------------------------------------------------------------------|
Bb|---------------------------------------------------------------------------|
Gb|---------------------------------------------------------------------------|
Db|--1--1-1-1-1------2--2-2-2-2-----------------------------------------------|
Ab|--1--1-1-1-1--4---2--2-2-2-2--4/6------------------------------------------|
Db|--1--1-1-1-1------2--2-2-2-2-----------------------------------------------|

Solo:
Eb|--------------------------------------------------------------------9-----10b12--|
Bb|-----------------------------------------------------7----7--9--12-----12--------|
Gb|---------4---6b7---4---6b7---4h6p4------------4h6/8-----8------------------------|
Db|---4h6-----------------------------6------4h6------------------------------------|
Ab|---------------------------------------------------------------------------------|
Db|---------------------------------------------------------------------------------|


************************************

| x   Dead note
| g   Grace note
| (n) Ghost note
| h   Hammer-on
| p   Pull-off
| r   Release
| >   Accented note
| t   Tapping
| b   Bend
| br  Bend release
| pb  Pre-bend
| pbr Pre-bend release
| /   Slide up
| \   Slide down
| ~   Vibrato
| s   Slap
| P   Pop
| PM  Palm mute
| TR  Trill
| N   Tremolo

************************************

↓ Add and view comments below ↓

What do you think about this song and these tabs?

Add your comments, questions, rant or a thumbs up below.

Almost there ...

Sign in to get your own page with links to favourite songs and more. You are just one click away...

Login with Facebook Login with Google