Search tabs and chords

Browse bands and artists

A B C D E F G H I J K L M N O P Q R S T U V W X Y Z #

Log in

[ Register here | Forgot password ]

Guitar Tabs Explorer
Print

Guitar tabs :

Sweet City Woman tab by Stampeders (Solo)

-------------------------------------------------------------------------
                               Artist - Stampeders
                              *********************
                             Song - Sweet City Woman
                            *************************
                        Album - Sweet City Woman (1973)
                       *********************************
                              Tabbed By - Ayreon77
                             **********************
-------------------------------------------------------------------------


00:46
SM SOLO
********            s                                    s
e|-10~~~~~-8-7-8-7-8\10~~~~-|-3-3-3-5-3-|-10~~~~~-8-7-8-7-8\10~~~~-|
B|--------------------------|-3-3-3-3-3-|--------------------------|
G|--------------------------|-4-4-4-4-4-|--------------------------|
D|--------------------------|-----------|--------------------------|
A|--------------------------|-----------|--------------------------|
E|--------------------------|-----------|--------------------------|


-------------------------
01:52
SM SOLO
********            s                                      s
e|-10~~~~~-8-7-8-7-8\10~~~~-|-3-3-3-5-3-|-10~~~~~-8-7-8-7-8\10~~~~-|
B|--------------------------|-3-3-3-3-3-|--------------------------|
G|--------------------------|-4-4-4-4-4-|--------------------------|
D|--------------------------|-----------|--------------------------|
A|--------------------------|-----------|--------------------------|
E|--------------------------|-----------|--------------------------|

-------------------------
02:11
MAIN SOLO
**********          s            p
e|-10~~~~~-8-7-8-7-8\10~~~--8-7-8-7---7-8--7--------|
B|----------------------------------8--------8------|
G|---------------------------------------------7~~~-|
D|--------------------------------------------------|
A|--------------------------------------------------|
E|--------------------------------------------------|

            s              s
e|-8-7-8-7-8\10-|-8-7-8-7-8\10-|-8-7-8-7-8-|-7-7-7-8--7-----|------------7-8-|
B|------------------------------------------------------8---|-----7-8-10-----|
G|--------------------------------------------------------7-|-7-9------------|
D|----------------------------------------------------------|----------------|
A|----------------------------------------------------------|----------------|
E|----------------------------------------------------------|----------------|


02:22               s            p
e|-10~~~~~-8-7-8-7-8\10~~~--8-7-8-7---7-8--7--------|
B|----------------------------------8--------8------|
G|---------------------------------------------7~~~-|
D|--------------------------------------------------|
A|--------------------------------------------------|
E|--------------------------------------------------|

            s              s
e|-8-7-8-7-8\10-|-8-7-8-7-8\10-|-8-7-8-7-8-|-7-7-7-8--7-----|
B|--------------|--------------|-----------|------------8---|
G|--------------|--------------|-----------|--------------7-|
D|--------------|--------------|-----------|----------------|
A|--------------|--------------|-----------|----------------|
E|--------------|--------------|-----------|----------------|


-------------------------
02:35
SM SOLO
********            s                                      s
e|-10~~~~~-8-7-8-7-8\10~~~~-|-3-3-3-5-3-|-10~~~~~-8-7-8-7-8\10~~~~-|-3-3-3-5-3-|
B|--------------------------|-3-3-3-3-3-|--------------------------|-3-3-3-3-3-|
G|--------------------------|-4-4-4-4-4-|--------------------------|-4-4-4-4-4-|
D|--------------------------|-----------|--------------------------|-----------|
A|--------------------------|-----------|--------------------------|-----------|
E|--------------------------|-----------|--------------------------|-----------|


-------------------------
Outro
******
02:57
e|-5-5-5-5-|-5-5-5-5-|-3-3-3-3-|-3-3-3-3-|
B|-3-3-3-3-|-3-3-3-3-|-3-3-3-3-|-3-3-3-3-|
G|-4-4-4-4-|-4-4-4-4-|-4-4-4-4-|-4-4-4-4-|
D|---------|---------|---------|---------|
A|---------|---------|---------|---------|
E|---------|---------|---------|---------|X3


ENJOY.............

"Sweet City Woman" is a song off of Canadian rockers The Stampeders´ debut album from 1971. "Sweet City Woman" was also the title track in Canada and other countries but the record was re-branded for the US market.

Comments

Stampeders guitar tabs for Sweet city woman