Log in

One click and you are in

Login with Facebook Login with Google

Why sign up and log in

Guitar Tabs Explorer
Gwen Stacy bass tabs for The fear in your eyes

Bass tabs

(BAND) - Gwen Stacy
Drop C Tuning

(This Is My First Tab, Hope I Did It Okay.)

G----------------------------------------------------------------------------|
D----------------------------------------------------------------------------|
A----------------------------------------------------------------------------|
E--4-4-4-4-4-4-4-4-4-4-4-4-4-4-4-4-4-4-4-4-4-4-4-4-4-4-4-4-4-4-4-4-----------|

G----------------------------------------------------------------------------|
D----------------------------------------------------------------------------|
A----------------------------------------------------------------------------|
E--0-0-0-0-0-0-0-0---0--HOLD----0-0-0-0-0-0-0-0--0----4--4-4--4-4-4----------|

G----------------------------------X-----------------------------------------|
D---------------------------------XX-----------------------------------------|
A---------------------------------XX---------------4-4-4-4-4-4---------------|
E--4-4-4--4-4-4-7-7-7-7-7-7-7-7-7-X----0-0-0-0-0-0-------------2-2-2-2-2-2---|

G-----------------------------------------------------------------------------|
D-----------------------------------------------------------------------------|
A--2-2-2-2-2-2-2-------------------SHORT--------------------------------------|
E-----------------4-4-4-4-4-4-4-4-4-HOLD-4---HOLD--4-4-4-4-4--HOLD--4-4-4-4-4-|
                                SHORT HOLD ^^


G----------------------------------------------------------------------------|
D----------------------------------------------------------------------------|
A----------------------------------------------------------------------------|
E--0-0-0-0-0-----2-2-----2--2-2-2-2----7-7-7-7---9-9-9-9--4-4-4-4------------|


G----------------------------------------------------------------------------|
D----------------------------------------------------------------------------|
A----------------------------------------------------------------------------|
E--4-4-4-4-4---4--4-4-4-4----0-0-0-0-0----2-2-----2-2-2-2--------------------|

G-------------------------------------------------------------X--------------|
D-----------------------------------------------------------X-X--------------|
A-----------------------------------------------------------X-X--------------|
E--4-4-4-4-4-4----4-4-4---4-4-4--4-4-4--7-7-7--7-7-7--7-7-7-X---0---0-0-0-0--|


G----------------------------------------------------------------------------|
D----------------------------------------------------------------------------|
A--4-4-4--4-4-4----------------2-2-2--2-2-2----------------------------------|
E----------------2-2-2--2-2-2----------------4-4-4--4-4-4---4-4-4--4-4-4-----|

G--------------------------X--------------------------------------------------|
D------------------------X-X--------------------------------------------------|
A------------------------X-X----------------4-4-4--4-4-4----------------------|
E--7-7-7--7-7-7--7-7-7---X----0-0-0--0-0-0----------------2-2-2--2-2-2--0-0---|


G----------------------------------------------------------------------------|
D----------------------------------------------------------------------------|
A--------------------------------------------9---9---9--9---9----------------|
E--2--2---0-0-2---2---0---4---4---4--4---4----------------------0--0---------|

G----------------------------------------------------------------------------|
D----------------------------------------------------------------------------|
A----------------------------------------------------------------------------|
E--2---2---0-0-2---2---0---4--4-----4-4-4--4-----0-0--2---2---0--0-2---2-----|

G----------------------------------------------------------------------------|
D----------------------------------------------------------------------------|
A----------------------------------------------------------------------------|
E--0-4-------0--2-2-2-2-2-2-2-2-2-2-2-2-0--0-0-0----0-0-0--0--0----0----0----|

G----------------------------------------------------------------------------|
D----------------------------------------------------------------------------|
A----------------------------------------------------------------------------|
E--0--0-0-0-------0--0-0-0---2--2--2--0--0-0-0------0-0-0--0--0----0----0----|

G-----------------------------------------------------------------------------|
D-----------------------------------------------------------------------------|
A-----------------------------------------------------------------------------|
E--0--0-0-0--0--0-0-0--2--2--2--0--0-0-0----0-0-0--0--0---0---0------0--0-0-0-|

G----------------------------------------------------------------------------|
D----------------------------------------------------------------------------|
A----------------------------------------------------------------------------|
E--0-0-0--0--2--2--2--0--0-0-0------0-0-0--0--0-----2--2--2--0--0-0-0--------|

G----------------------------------------------------------------------------|
D----------------------------------------------------------------------------|
A----------------------------------------------------------------------------|
E--0-0-0--0--0---0---0----0--0-0-0---2------HOLD------4-4-4--4-4-4--4-4-4----|

G------------------------------X---------------------------------------------|
D----------------------------X-X---------------------------------------------|
A----------------------------X-X----------------4-4-4--4-4-4-----------------|
E--4-4-4-7-7-7--7-7-7--7-7-7-X----0-0-0--0-0-0----------------2-2-2--2-2-2---|

G------------------------------------------------------------------X----------|
D----------------------------------------------------------------X-X----------|
A--2-2-2--2-2-2--------------------------------------------------X-X----------|
E-----------------4-4-4--4-4-4--4-4-4--4-4-4--7-7-7--7-7-7--7-7-7-X-----------|

G-----------------------------------------------------------------------------|
D-----------------------------------------------------------------------------|
A----------------4-4-4--4-4-4---------------2-2-2--2-2-2-2--------------------|
E--0-0-0--0-0-0---------------2-2-2--2-2-2------------------4-4-4-4-4---------|

G----------------------------------------------------------------------------|
D----------------------------------------------------------------------------|
A----------------------------------------------------------------------------|
E--4--4-4-4-4--HOLD---0-0-0-0-0-0-0-0-0-0-0-0-0-0-0-0-4-4-4-4-4---HOLD-------|

G----------------------------------------------------------------------------|
D----------------------------------------------------------------------------|
A----------------------------------------------------------------------------|
E--0-0-0-0-0-0-0-0-4-4-4-4-4-HOLD----4--4-4-4--4--HOLD---0-0-0-0-0-0-0-0-----|

G----------------------------------------------------------------------------|
D--------------------------------6--7-6--------------------------------------|
A-----------------------------X---------7-4-7--4--SHORT----------------------|
E--2-2-2-2-2-2-2-2-4-4-4-4-4--X--------------------HOLD--4--4-4-4--4---------|

G----------------------------------------------------------------------------|
D--6--7-6------------------------------------------6--7-6--------------------|
A---------7-4-7--------------------------------X----------7-4-7-4------------|
E----------------0-0-0-0-0-0-0--9--2-4-4-4-4---X-----------------------------|

G----------------------------------------------------------------------------|
D----------------6--7-6------------------------------------------------------|
A-----------------------7-4-7------------------------------------------------|
E--4--4-4-4--4---------------------0-0-0-0-0-0-0-0-2-2-2-2-2-2-2-2-----------|

G----------------------------------------------------------------------------|
D----------------------------------------------------------------------------|
A----------------------------------------------------------------------------|

Almost there ...

Sign in to get your own page with links to favourite songs and more. You are just one click away...

Login with Facebook Login with Google