Log in

One click and you are in

Login with Facebook Login with Google

Why sign up and log in

Guitar Tabs Explorer
Stackridge bass tabs for Hold me tight

Bass tabs

  • Tuning: Standard tuning
  • Difficulty: Beginner
--------------------------------------------------------------------------
              Artist - Stackridge
              *********************
              Song - Hold Me Tight
             **********************
             Album - Mr. Mick (1976)
             *************************
              Tabbed By - Ayreon77
             **********************
--------------------------------------------------------------------------

Tuning = Standard
00:16

INTRO
******
G|-----0---|---2-5---|-----2---|---------|-----0---|---2-5---|-----2---|---------|
D|---2-----|-3-----3-|-0-3---0-|-----0---|---2-----|-3-----3-|-0-3---0-|-----0---|
A|-3-----3-|---------|---------|---2-----|-3-----3-|---------|---------|---2-----|
E|---------|---------|---------|-3-----3-|---------|---------|---------|-3-----3-|


--------------------------
00:34

VERSE 1
********
G|-----0---|---2-5---|-----2---|---------|-----0---|---2-5---|-----2---|---------|
D|---2-----|-3-----3-|-0-3---0-|-----0---|---2-----|-3-----3-|-0-3---0-|-----0---|
A|-3-----3-|---------|---------|---2-----|-3-----3-|---------|---------|---2-----|
E|---------|---------|---------|-3-----3-|---------|---------|---------|-3-----3-|

00:52
G|-----0---|-----0---|---2-5---|---2-5---|-----0---|---2-5---|-----0---|---------|
D|---2-----|---2-----|-3-----3-|-3-----3-|---2-----|-3-----3-|---2-----|-----0---|
A|-3-----3-|-3-----3-|---------|---------|-3-----3-|---------|-3-----3-|---2-----|
E|---------|---------|---------|---------|---------|---------|---------|-3-----3-|

--------------------------
01:10

VERSE 2
********
G|-----0---|---2-5---|-----2---|-----------|-----0---|---2-5---|-----2---|-----------|
D|---2-----|-3-----3-|-0-3---0-|-------0---|---2-----|-3-----3-|-0-3---0-|-------0---|
A|-3-----3-|---------|---------|-0---2-----|-3-----3-|---------|---------|-0---2-----|
E|---------|---------|---------|---3-----3-|---------|---------|---------|---3-----3-|


G|-----0---|-----0---|---2-5---|---2-5---|-----0---|---2-5---|-----0---|---------|
D|---2-----|---2-----|-3-----3-|-3-----3-|---2-----|-3-----3-|---2-----|-----0---|
A|-3-----3-|-3-----3-|---------|---------|-3-----3-|---------|-3-----3-|---2-----|
E|---------|---------|---------|---------|---------|---------|---------|-3-----3-|


--------------------------
01:28

BRIDGE
*******
G|-----0---|---0-3----------|-----0---|---2-5---|---------|-------------|
D|---2-----|-1-----1--1-1-1-|---2-----|-3-----3-|-0-----0-|-5--5--5~~~~-|
A|-3-----3-|----------------|-3-----3-|---------|---3-0---|-------------|
E|---------|----------------|---------|---------|---------|-------------|


--------------------------
02:02

SOLO
*****
G|-----0---|---2-5---|-----2---|---4-7---|-----0---|---2-5---|-----2---|---4-7---|
D|---2-----|-3-----3-|-0-3---0-|-5-----5-|---2-----|-3-----3-|-0-3---0-|-5-----5-|
A|-3-----3-|---------|---------|---------|-3-----3-|---------|---------|---------|
E|---------|---------|---------|---------|---------|---------|---------|---------|


--------------------------
02:20

VERSE 3
********
G|-----0---|---2-5---|-----2---|---------|-----0---|---2-5---|-----2---|---------|
D|---2-----|-3-----3-|-0-3---0-|-----0---|---2-----|-3-----3-|-0-3---0-|-----0---|
A|-3-----3-|---------|---------|---2-----|-3-----3-|---------|---------|---2-----|
E|---------|---------|---------|-3-----3-|---------|---------|---------|-3-----3-|

02:38
G|-----0---|-------0---|---2-5---|---2-5---|-----0---|---2-5---|-----0---|---2-5---|
D|---2-----|-----2-----|-3-----3-|-3-----3-|---2-----|-3-----3-|---2-----|-3-----3-|
A|-3-----3-|-0-3-----3-|---------|---------|-3-----3-|---------|-3-----3-|---------|
E|---------|-----------|---------|---------|---------|---------|---------|---------|

02:56
G|-----0---|---2-5---|-------0---|-----------|
D|---2-----|-3-----3-|-----2-----|-------0---|
A|-3-----3-|---------|-0-3-----3-|-0---2-----|
E|---------|---------|-----------|---3-----3-|


--------------------------
03:05

SOLO
*****              Repeat And Fade Out.............................
G|-----0---|---2-5---|-----2---|---4-7---|-----0---|---2-5---|-----2---|---4-7---|
D|---2-----|-3-----3-|-0-3---0-|-5-----5-|---2-----|-3-----3-|-0-3---0-|-5-----5-|
A|-3-----3-|---------|---------|---------|-3-----3-|---------|---------|---------|
E|---------|---------|---------|---------|---------|---------|---------|---------|


ENJOY............

Almost there ...

Sign in to get your own page with links to favourite songs and more. You are just one click away...

Login with Facebook Login with Google