Log in

One click and you are in

Login with Facebook Login with Google

Why sign up and log in

Guitar Tabs Explorer
St. Vincent guitar chords for Year of the tiger acoustic

Year Of The Tiger Acoustic chords by St. Vincent

St. Vincent guitar chords for Year of the tiger acoustic

Guitar chords with lyrics

Tuning: Standard (E A D G B E)

Key: A chord diagramA majorA

Difficulty: Novice

This is based on the acoustic recording: https://www.youtube.com/watch v=I8KMRbiurJQ&t=0s&index=19&list=WL
She plays in D-Standard but it's not necessary to tune down, so I tabbed it in E-Standard.
(You can transpose it 2 steps down to play the A chord diagramDmDm in the bridge as an open chord if you want)
She never uses a pick btw.
Intro:
A chord diagramA majorA       A chord diagramFF       A chord diagramG MajorG        A chord diagramA majorA
~~~humming~~~


Verse:
              A chord diagramFF
When I was young
                      A chord diagramA majorA
Coach called me the tiger ~~~humming~~~
           A chord diagramFF
I always had
                        A chord diagramA majorA
A chord diagramA majorA knack with the danger ~~~humming~~~


Chorus:
A chord diagramC majorC                     A chord diagramG MajorG            A chord diagramFF
Living in fear in the year of the tiger
A chord diagramC majorC                     A chord diagramG MajorG            A chord diagramFF
Living in fear in the year of the tiger
A chord diagramC majorC                     A chord diagramG MajorG            A chord diagramA majorA
Living in fear in the year of the tiger


Verse:
           A chord diagramFF
Italian shoes Like these rubes know the difference
              A chord diagramG MajorG
Suitcase of cash In the back of my stick shift
          A chord diagramFF
I had to be the best of the bourgeoisie
           A chord diagramG MajorG               A chord diagramG7G7
Now my kingdom for a cup of coffee


Chorus:
A chord diagramC majorC                     A chord diagramG MajorG            A chord diagramFF
Living in fear in the year of the tiger
A chord diagramC majorC                     A chord diagramG MajorG            A chord diagramFF
Living in fear in the year of the tiger
A chord diagramC majorC                     A chord diagramG MajorG            A chord diagramFF
Living in fear in the year of the tiger
A chord diagramC majorC                     A chord diagramG MajorG            A chord diagramA majorA
Living in fear in the year of the tiger


Bridge:
A chord diagramA majorA       A chord diagramFF       A chord diagramG MajorG        A chord diagramA majorA
~~~humming~~~

e|---------------------------------------------------------------------------|
B|---------------------------------------------------------------------------|
G|---------------------------5h7---------------------------------------------|
D|----------------------5h7--------------------------------------------------|
A|---5h7p5\3-----3h5/7-------------------------------------------------------|
E|------------5--------------------------------------------------------------|

e|---------------------------------------------------------------------------|
B|---------------------------------------------------------------------------|
G|---------------------------------------------------------------------------|  x4
D|----x-----x--xx-----x---x--x--x-----x-----x--xx--x--x----x---xx------------|
A|----x-----x--xx-----x---x--x--x-----x-----x--xx--x--x----x---xx------------|
E|---10-----8--10-----8--10--8--5/8--10-----8--10--8--5\3--2--/12------------|
       "Oh America,   Can I owe you one"

A chord diagramDmDm      A chord diagramFF       A chord diagramG MajorG              x2


Chorus:
e|---------------------------------------------------------------------------|
B|---------------------------------------------------------------------------|
G|---------------------------------------------------------------------------|  x4
D|----x-----x--xx-----x---x--x--x-----x-----x--xx--x--x----x---xx------------|
A|----x-----x--xx-----x---x--x--x-----x-----x--xx--x--x----x---xx------------|
E|---10-----8--10-----8--10--8--5/8--10-----8--10--8--5\3--2--/12------------|
       "Living in fear in the year of the tiger"


Outro:
A chord diagramA majorA       A chord diagramFF       A chord diagramG MajorG        A chord diagramA majorA
~~~humming~~~


***********************************

| x  Dead note
| h  Hammer-on
| p  Pull-off
| /  Slide up
| \  Slide down

***********************************

Almost there ...

Sign in to get your own page with links to favourite songs and more. You are just one click away...

Login with Facebook Login with Google