Log in

One click and you are in

Login with Facebook Login with Google

Why sign up and log in

Guitar Tabs Explorer
St. Vincent guitar tabs for Severed crossed fingers acoustic

Severed Crossed Fingers Acoustic tab by St. Vincent

St. Vincent guitar tabs for Severed crossed fingers acoustic

Guitar tabs with lyrics

Tuning: A chord diagramD MajorD Tuning (A chord diagramD MajorD A chord diagramG MajorG A chord diagramC majorC A chord diagramFF A chord diagramA majorA A chord diagramD MajorD)

Key: A chord diagramG MajorG

Difficulty: Novice
Intro:
   A chord diagramA majorA           A chord diagramAsus4Asus4        A chord diagramA majorA           A chord diagramAaugAaug          A chord diagramA majorA            A chord diagramAsus4Asus4        A chord diagramA majorA           A chord diagramAaugAaug
d|------------------------|-------------------------|-------------------------|-------------------------|
A|-------2-----------3----|-------2------------2----|-------2------------3----|-------2------------2----|
F|------------------------|-----------------2-------|------------2------------|-----------------2-------|
C|----2-----2-----2-----2-|----2----------3-------3-|----2-----2------2-----2-|----2-----2----3---------|
G|-0-----------0----------|-0-----------0-----------|-0------------0----------|-0-----------0-----------|
D|------------------------|-------------------------|-------------------------|-------------------------|


Verse:
    "When you're calling ain't calling back to you     I'll be side stage,     mouthing lines for you"
   A chord diagramA majorA           A chord diagramAsus4Asus4        A chord diagramA majorA           A chord diagramAaugAaug         A chord diagramA majorA           A chord diagramAsus4Asus4        A chord diagramA majorA           A chord diagramAaugAaug
d|------------------------|------------------------|------------------------|-------------------------|
A|-------2-----------3----|-------2-----------2----|-------2-----------3----|-------2-----------2-----|
F|-------2-----------2----|-------2-----------2----|-------2-----------2----|-------2-----------2-----|
C|----2-----2-----2-----2-|----2-----2-----3-----3-|----2-----2-----2-----2-|----2-----2-----3-----3--|
G|-0-----------0----------|-0-----------0----------|-0-----------0----------|-0-----------0-----------|
D|------------------------|------------------------|------------------------|-------------------------|

    "Humiliated by age,      terrified of youth, well, I got hope but my hope    isn't helping you"
   A chord diagramA majorA           A chord diagramAsus4Asus4        A chord diagramA majorA           A chord diagramAaugAaug         A chord diagramA majorA           A chord diagramAsus4Asus4        A chord diagramA majorA           A chord diagramAaugAaug
d|------------------------|------------------------|------------------------|-------------------------|
A|-------2-----------3----|-------2-----------2----|-------2-----------3----|-------2--------------2--|
F|-------2-----------2----|-------2-----------2----|-------2-----------2----|-------2-----------2--2--|
C|----2-----2-----2-----2-|----2-----2-----3-----3-|----2-----2-----2-----2-|----2-----2-----3--------|
G|-0-----------0----------|-0-----------0----------|-0-----------0----------|-0-----------0-----------|
D|------------------------|------------------------|------------------------|-------------------------|

Chorus:
   "Spitting out guts     |   Draining our         | Found my severed crossed fingers in the rubble there"
     from their gears     |  spleen over years     |
   A chord diagramA majorA           A chord diagramAsus4Asus4        A chord diagramA majorA           A chord diagramAsus4Asus4        A chord diagramA majorA           A chord diagramG MajorG            A chord diagramE MajorE
d|------------------------|------------------------|------------------------|-------0-----------------|
A|-------2-----------3----|-------2-----------3----|-------2-----------0----|-------0-----0------0----|
F|-------2-----------2----|-------2-----------2----|-------2-----------0----|-1-----1--1--2p1----1----|
C|----2-----2-----2-----2-|----2-----2-----2-----2-|----2-----2-----0-----0-|-2-----2--2--2------2----|
G|-0-----------0----------|-0-----------0----------|-0----------------------|-2-----2--2--2---2--2----|
D|------------------------|------------------------|-------------3----------|-0--------0--0---0-------|

Interlude:
   A chord diagramA majorA           A chord diagramAsus4Asus4        A chord diagramA majorA           A chord diagramAaugAaug
d|------------------------|----------------------------|
A|-------2------------3---|-------2------------2-------|
F|-----------------2------|------------------2---2---2-|
C|----2-----2----2------2-|----2-----2-----3-------3---|
G|-0-----------0----------|-0-----------0--------------|
D|------------------------|----------------------------|


Verse 2:
    "Wake up puddle eyed,    sleeping in the suit     The truth is ugly, well  I feel ugly too"
   A chord diagramA majorA           A chord diagramAsus4Asus4        A chord diagramA majorA           A chord diagramAaugAaug         A chord diagramA majorA           A chord diagramAsus4Asus4        A chord diagramA majorA           A chord diagramAaugAaug
d|------------------------|------------------------|------------------------|-------------------------|
A|-------2-----------3----|-------2-----------2----|-------2-----------3----|-------2-----------2-----|
F|-------2-----------2----|-------2-----------2----|-------2-----------2----|-------2-----------2-----|
C|----2-----2-----2-----2-|----2-----2-----3-----3-|----2-----2-----2-----2-|----2-----2-----3-----3--|
G|-0-----------0----------|-0-----------0----------|-0-----------0----------|-0-----------0-----------|
D|------------------------|------------------------|------------------------|-------------------------|

    "We'll be heroes on      every bar stool          Seeing double beats      not seeing one of you"
   A chord diagramA majorA           A chord diagramAsus4Asus4        A chord diagramA majorA           A chord diagramAaugAaug         A chord diagramA majorA           A chord diagramAsus4Asus4        A chord diagramA majorA           A chord diagramAaugAaug
d|------------------------|------------------------|------------------------|-------------------------|
A|-------2-----------3----|-------2-----------2----|-------2-----------3----|-------2-----------2-----|
F|-------2-----------2----|-------2-----------2----|-------2-----------2----|-------2-----------2-----|
C|----2-----2-----2-----2-|----2-----2-----3-----3-|----2-----2-----2-----2-|----2-----2-----3-----3--|
G|-0-----------0----------|-0-----------0----------|-0-----------0----------|-0-----------0-----------|
D|------------------------|------------------------|------------------------|-------------------------|


Chorus 2:
   "Spitting out guts      |       Draining our       | Found my severed crossed fingers in the rubble there"
     from their gears      |    spleen over years     |
   A chord diagramA majorA            A chord diagramAsus4Asus4        A chord diagramA majorA            A chord diagramAsus4Asus4         A chord diagramA majorA            A chord diagramG MajorG             A chord diagramE MajorE
d|-------------------------|--------------------------|--------------------------|-------0-----------------|
A|-------2-2-2-------3-3-3-|-------2-2-2--------3-3-3-|-------2-2-2--------0-0-0-|-------0-----0------0----|
F|-------2-2-2-------2-2-2-|-------2-2-2--------2-2-2-|-------2-2-2--------0-0-0-|-1-----1--1--2p1----1----|
C|----2--2-2-2----2--2-2-2-|----2--2-2-2-----2--2-2-2-|----2--2-2-2-----0--0-0-0-|-2-----2--2--2------2----|
G|-0-----0-0-0--0----0-0-0-|-0-----0-0-0--0-----0-0-0-|-0-----0-0-0--------x-x-x-|-2-----2--2--2---2--2----|
D|-------------------------|--------------------------|--------------3-----3-3-3-|-0--------0--0---0-------|

   "Well you stole the     |   Changed the words      | Found my severed crossed fingers in the rubble there"
   heart right out my chest|    that I know best      |
   A chord diagramA majorA            A chord diagramAsus4Asus4        A chord diagramA majorA            A chord diagramAsus4Asus4         A chord diagramA majorA            A chord diagramG MajorG             A chord diagramE MajorE
d|-------------------------|--------------------------|--------------------------|-------0-----------------|
A|-------2-2-2-------3-3-3-|-------2-2-2--------3-3-3-|-------2-2-2--------0-0-0-|-------0-----0------0----|
F|-------2-2-2-------2-2-2-|-------2-2-2--------2-2-2-|-------2-2-2--------0-0-0-|-1-----1--1--2p1----1----|
C|----2--2-2-2----2--2-2-2-|----2--2-2-2-----2--2-2-2-|----2--2-2-2-----0--0-0-0-|-2-----2--2--2------2----|
G|-0-----0-0-0--0----0-0-0-|-0-----0-0-0--0-----0-0-0-|-0-----0-0-0--------x-x-x-|-2-----2--2--2---2--2----|
D|-------------------------|--------------------------|--------------3-----3-3-3-|-0--------0--0---0-------|

d|--------0-------------|
A|--------0--0-----0----|
F|-1--2p1-1--2p1---1----|
C|-2--2---2--2-----2----|
G|-2--2---2--2--2--2----|
D|-0--0---0--0--0---0---|


Bridge:
  "You a a a, you a a a you're holding on holding on You a a a, you a a a you're holding on holding on"
   A chord diagramB minorBm                       A chord diagramC# minorC#m                      A chord diagramB minorBm                       A chord diagramC# minorC#m
d|------------------------|------------------------|------------------------|------------------------|
A|-----3--3-3------3--3-3-|-----5--5-5------5--5-5-|-----3--3-3------3--3-3-|-----5--5-5------5--5-5-|
F|-----4--4-4------4--4-4-|-----6--6-6------6--6-6-|-----4--4-4------4--4-4-|-----6--6-6------6--6-6-|
C|-----4--4-4------4--4-4-|-----6--6-6----6-6--6-6-|-----4--4-4------4--4-4-|-----6--6-6------6--6-6-|
G|-2-2-2--2-2--2-2-2--2-2-|-4-4-4--4-4--4-4-4--4-4-|-2-2-2--2-2--2-2-2--2-2-|-4-4-4--4-4--4-4-4--4-4-|
D|------------------------|------------------------|------------------------|------------------------|

   A chord diagramD MajorD           A chord diagramE minor 7Em7          A chord diagramFF
"And on and on and on and on and on...
d|------------------------|------------------------|
A|-----7--7--------8------|------10--10-10--10-10--|
F|-----7--7-------(7)-----|------10--10-10--10-10--|
C|-----7--7--------9------|---10-10--10-10--10-10--|
G|-5-5-5--5----7-7-7------|-8--8--8---8--8---8--8--|
D|------------------------|------------------------|


Chorus 3:
   "Spitting out guts      |       Draining our       | Found my severed crossed fingers in the rubble there"
     from their gears      |    spleen over years     |
   A chord diagramA majorA            A chord diagramAsus4Asus4        A chord diagramA majorA            A chord diagramAsus4Asus4         A chord diagramA majorA            A chord diagramG MajorG             A chord diagramE MajorE
d|-------------------------|--------------------------|--------------------------|-------0-----------------|
A|-------2-2-2-------3-3-3-|-------2-2-2--------3-3-3-|-------2-2-2--------0-0-0-|-------0-----0------0----|
F|-------2-2-2-------2-2-2-|-------2-2-2--------2-2-2-|-------2-2-2--------0-0-0-|-1-----1--1--2p1----1----|
C|----2--2-2-2----2--2-2-2-|----2--2-2-2-----2--2-2-2-|----2--2-2-2-----0--0-0-0-|-2-----2--2--2------2----|
G|-0--0--0-0-0--0-0--0-0-0-|-0--0--0-0-0--0--0--0-0-0-|-0--0--0-0-0--x--x--x-x-x-|-2-----2--2--2---2--2----|
D|-------------------------|--------------------------|--------------3--3--3-3-3-|-0--------0--0---0-------|

   "Well you stole the     |   Changed the words      | Found my severed crossed fingers in the rubble there"
   heart right out my chest|    that I know best      |
   A chord diagramA majorA            A chord diagramAsus4Asus4        A chord diagramA majorA            A chord diagramAsus4Asus4         A chord diagramA majorA            A chord diagramG MajorG             A chord diagramE MajorE
d|-------------------------|--------------------------|--------------------------|-------0-----------------|
A|-------2-2-2-------3-3-3-|-------2-2-2--------3-3-3-|-------2-2-2--------0-0-0-|-------0-----0------0----|
F|-------2-2-2-------2-2-2-|-------2-2-2--------2-2-2-|-------2-2-2--------0-0-0-|-1-----1--1--1------1----|
C|----2--2-2-2----2--2-2-2-|----2--2-2-2-----2--2-2-2-|----2--2-2-2-----0--0-0-0-|-2-----2--2--2------2----|
G|-0--0--0-0-0--0----0-0-0-|-0--0--0-0-0--0--0--0-0-0-|-0--0--0-0-0-----x--x-x-x-|-2-----2--2--2---2--2----|
D|-------------------------|--------------------------|--------------3--3--3-3-3-|-0--------0--0---0-------|

d|--------0-------------|
A|--------0--0-----0----|
F|-1--1---1--1-----1----|
C|-2--2---2--2-----2----|
G|-2--2---2--2--2--2----|
D|-0--0---0--0--0---0---|


Outro:
   A chord diagramA majorA           A chord diagramAsus4Asus4        A chord diagramA majorA           A chord diagramAaugAaug         A chord diagramA majorA
d|------------------------|------------------------|------------------------|
A|-------2-----------3----|-------2--------------2-|-2----------------------|
F|------------------------|-------------------2----|-2----------------------|
C|----2-----2-----2-----2-|----2-----2-----3-------|-2----------------------|
G|-0-----------0----------|-0-----------0----------|-0----------------------|
D|------------------------|------------------------|------------------------|

***********************************

| x Dead note
| p Pull-off

***********************************

Almost there ...

Sign in to get your own page with links to favourite songs and more. You are just one click away...

Login with Facebook Login with Google