Search tabs and chords

Search for song, artist or band

Log in

One click and you are in

Login with Facebook Login with Google

Why sign up and log in

Guitar Tabs Explorer
St Vincent guitar tabs for Birth in reverse

Guitar tabs

Please give feedback and corrections!

Verses:
e|-----------------------x------|
B|-----------------------10-----|
G|-----------------------x------| She plays a few different rhythms on that chord so just listen
D|-----9-11-13b-11-9-11--9------| for each time!
A|---6-------------------9------|
E|-0---------------------7------|  x2

e|---x----x----------------------|
B|---5----8----------------------| The same goes for the rhythms on these chords.
G|---x----x----------------------|
D|---4----7----------------------|
A|---4----7----------------------| After these she does a slide/glissando on the low E chord diagramEE before
E|---2----5----------------------| repeating again.

Chorus:

e|---------------------------------------------------|
B|---14-14-14-14-14-12-14-14-14-14-14-12-------------|
G|---X--X--X--X---X--X--X--X--X--X--X--X-------------|
D|---14-14-14-14-14-12-14-14-14-14-14-12--9----------|
A|---X--X--X--X---X--X--X--X--X--X--X--X--9-x16------|    x4
E|---12-12-12-12-12-12-12-12-12-12-12-12--7----------|

Instrumental:
(I don't think the chords after the riff are exactly right but they are in that general area.)
e|-------------------------------|
B|-----------------------10-10---|
G|-----------------------x--x----|
D|------------4----------9--9----|
A|-----------------------9--9----|
E|--0-0h4h5h7---7/1------7--7----|

e|-------------------------9-7----|
B|-------------------------x-x----|
G|-------------------------x-x----|
D|------------4----------9-9-9----|
A|-----------------------9-9-9----|
E|--0-0h4h5h7---7/1------7-7-7----|

e|-------------------------------|
B|-----------------------10-10---|
G|-----------------------x--x----|
D|------------4----------9--9----|
A|-----------------------9--9----|
E|--0-0h4h5h7---7/1------7--7----|

e|-------------------------------------------|
B|-------------------------------------------|
G|-------------------------------------------|
D|------------4------------4------------4----|
A|-------------------------------------------|
E|--0-0h4h5h7---7-0h4h5h7---7-0h4h5h7----7---|

Verse and chorus again.

Instrumental 2:
e|------------------------------------------------|
B|------------------------------------------------|
G|------------------------------------------------|
D|------7-9--------------7-9----------------------|
A|----4--------4-12----4--------4--12\7-9b--------|
E|--0--------0-------0--------0-------------2b----|

Chorus again.

Outro:
e|--------------------------------------------------------|
B|--------------------------------------------------------|
G|--------------------------------------------------------|
D|-------7h9-------7h9-------7h9-7p6-------7h9-7p6-7------|
A|--0h5-------0h5-------0h5-----------0h5-----------------|
E|---------------------------------------------------7----|

e|------------------------------------|
B|------------------------------------|
G|------------------------------------|
D|------7h9-7p6-------7h9-7p6-7-------|
A|--0h5-----------0h5-----------------|
E|------------------------------7-----|

Repeat that until the end.

h - hammer on
p - pull off
/\ - slides
b - bend

Almost there ...

Sign in to get your own page with links to favourite songs and more. You are just one click away...

Login with Facebook Login with Google