Log in

One click and you are in

Login with Facebook Login with Google

Why sign up and log in

Guitar Tabs Explorer
St Vincent bass tabs for All my stars aligned

Bass tabs

All My Stars Aligned - St. Vincent
-------------------------------------------------------------------------------

 Tabbed by:dvanwyk

 Tuning:Standard

 Verse x2
G|--------------------------------------------|
D|----------3~---3~---1~---1~-----------------|
A|4~---4~-------------------------------------|
E|------------------------------4~---4~-------|

 x1
G|--------------------|
D|--------------------|
A|---------3---4------|
E|4---6---------------|


 Chorus
G|----------------------------------------------|
D|4~-----4~----------4~-------------------------|
A|-----4-----------4-----------/8~---8~---8~----|
E|------------2~----------1~--------------------|

G|----------------------------------------4-3----------|
D|4~-----4~----------4~-----------------4-----4-6-4----|
A|-----4-----------4------4~---4~---2~-----------------|
E|------------2~---------------------------------------|

 Verse x2

 x1
G|----6h8-6-----------------|
D|----------8-6-------------|
A|--------------8-4-6~------|
E|4~------------------------|

 Chorus
G|----------------------------------------------|
D|4~-----4~----------4~-------------------------|
A|-----4-----------4-----------/8~---8~---8~----|
E|------------2~----------1~--------------------|

G|----------------------------------------4-3----------|
D|4~-----4~----------4~-----------------4-----6-4-3/---|
A|-----4-----------4------4~---4~---2~-----------------|
E|------------2~---------------------------------------|

 Pause

 (2.40 -2.52)
G|----------------------------|
D|----------------------------|
A|6-6-6-6-6-6-6-6-6-6-6-6-6---|
E|----------------------------|

G|------------------------------------------------------------|
D|------------------------------------------------------------|
A|4-4-4-4-4-4-4-4-5-5-5-5-6-6-6-6-6-6-6-6-6-6-6-6-6-6-6-6-6---|
E|------------------------------------------------------------|

G|-------------------------------------|
D|-------------------------------------|
A|8-8-8-8-8-8-8-8-8-----------4---6----|
E|-------------------1---3-------------|

 Chorus
G|----------------------------------------------|
D|4~-----4~----------4~-------------------------|
A|-----4-----------4-----------/8~---8~---8~----|
E|------------2~----------1~--------------------|

G|----------------------------------------4-3----------|
D|4~-----4~----------4~-----------------4-----6-4-3/---|
A|-----4-----------4------4~---4~---2~-----------------|
E|------------2~---------------------------------------|

Almost there ...

Sign in to get your own page with links to favourite songs and more. You are just one click away...

Login with Facebook Login with Google