Log in

One click and you are in

Login with Facebook Login with Google

Why sign up and log in

Guitar Tabs Explorer
Squallor bass tabs for Cornutone

Bass tabs

Tuning: Standard (E A D G)

Cornutone


Intro:
G|--------------------------------------------|
D|-----5-------4-------------5----------------|
A|-5-----5-------2---3-3-------3--5-----------|
E|--------------------------------------------|

Verse:
G|------------------------------------------------------------------|
D|------5-4-2-0----0-2-3-----5-4-2-1----2---------------------------|
A|----------------------------------------2--5--4--------5-4-2------|
E|-------------------------------------------------5-----------5----|

G|----------------------------------------------------6------------------|
D|-------5-4-2-0----0-2-3-----5-4-2-1---2--------------------------------|
A|-----------------------------------------2--5--4--4-------4-3---0------|
E|------------------------------------------------------------------1----|

 rit
G|-----------------7-----------------------------------------------|
D|-------3-------7-----6----5--3------------------5--3--2----1-3---|
A|--0-1------5-------5------------6--5--3-----6-5------------------|
E|---------------------------------------3-------------------------|

G|------------------7---------------------------------------------------|
D|-------3-------7-----6----5--3------------------5--4--3--2--1--3------|
A|--0-1------5-------5------------6--5--3-----6-5------------------1--0-|
E|---------------------------------------3------------------------------|


Bridge:

G|---------------------------------|
D|-----5-4-2-0-----0--2---3--------|  x2
A|---------------------------------|
E|---------------------------------|

G|---------------------------------|
D|-----5-4-2----1------------------|
A|---------------------------------|
E|---------------------------------|

G|---------------------------------|
D|-----6-------5----------6--------|
A|-------6--------3--4-4----4--6---|
E|---------------------------------|


Verse:

G|----------------------------------------------------7----------------|
D|------6-5-3---------3-4-----6-5-3-2----3-----------------------------|
A|--------------6--6-------------------3-----6--5--5----5-4-----1------|
E|------------------------------------------------------------2--------|

 rit
G|-------------------8------------------------------------------------|
D|-------4--------8---------7--6--4-------------------6--4--3--4------|
A|----2------6----------6-----------7--6--4-----7-6----------------1--|
E|------------------------------------------4-------------------------|

G|-------------------8--------------------------------------------------|
D|-------4--------8---------7--6--4-------------------6--4--3--2--3-----|
A|----2------6----------6-----------7--6--4-----7-6-----------------2---|
E|------------------------------------------4-------------------------3-|

G|-------------------9-------------------------------------------------|
D|-------5--------9----------8--7--5------------------7--5--4--5--3----|
A|----3------7----------7------------8--7--5----8-7--------------------|
E|-------------------------------------------5-------------------------|


Bridge:

G|------------------------------|
D|------------------------------|
A|----3-2-----------------------|
E|---------5--3---3--5----------|

Almost there ...

Sign in to get your own page with links to favourite songs and more. You are just one click away...

Login with Facebook Login with Google